Song name
# A B C D E F G H I J K L M N O P Q R S T U V W X Y Z

Pelican - Mammoth tab

Song: "Mammoth"
Artist: Pelican
Album: Pelican EP
Year: 2001
Time: (4:57)
Tuning: (B E A D Gb B)

A very simple song by Pelican. I included as many layered guitars as I could hear. I 
have many more Pelican songs figured out, so I will tab them eventually in the future. 
Pelican tabs are just so time consuming!!!

KEY
/=Slide
\=Slide
b=Bend
()= Delay effect used

(0:00)
B |-0--0--0--0--0--0--0--0--0---0-0--0--0--0--0--0--0--0--0--0-|
Gb|-5--5--5--5--0--5--5--0--7/8-8-8--0--5--5--5--5--0--5--5--0-|
D |------------------------------------------------------------|
A |------------------------------------------------------------|
E |------------------------------------------------------------|
B |------------------------------------------------------------|

(0:08)
B |-0---0-0--0--0--0-0-0--0-0-0--0--0--0---0-0--0--0--0--0--0--0-|
Gb|-7/8-8-8--0--5--5-5-5--5-5-5--5--0--7/8-8-8--0--5--5--5--5--0-|
D |--------------------------------------------------------------|
A |--------------------------------------------------------------|
E |--------------------------------------------------------------|
B |--------------------------------------------------------------|

(0:16)
B |-0----0--0---0-0--0--0--0-0-0--0-0-0--0--0--0----0--0---0--0--|
Gb|-3/5--0--7/8-8-8--0--5--5-5-5--5-5-5--5--0--9/10-10-10--0--5--|
D |--------------------------------------------------------------|
A |--------------------------------------------------------------|
E |--------------------------------------------------------------|
B |--------------------------------------------------------------|
  |
  |            (Delay)                             (Delay)
B |---------19-(19)-(19)-(19)-(19)--------------24-(24)-(24)-(24--|
Gb|---------------------------------------------------------------|
D |---------------------------------------------------------------|
A |---------------------------------------------------------------|
E |---------------------------------------------------------------|
B |---------------------------------------------------------------|


(0:22)
B |-0-0-0--0-0-0--0--0--0----0--0---0--0--0--0--0--0--0--0--0-|
Gb|-5-5-5--5-5-5--5--0--9/10-10-10--0--5--5--5--5--0--5--5--0-|
D |-----------------------------------------------------------|
A |-----------------------------------------------------------|
E |-----------------------------------------------------------|
B |-----------------------------------------------------------|
  |
  | (Delay)                               (Delay)
B |-(24)------------------------------------------------------|
Gb|------------------------------------15-(15)-(15)-(15)-(15)-|
D |-----------------------------------------------------------|
A |-----------------------------------------------------------|
E |-----------------------------------------------------------|
B |-----------------------------------------------------------|


(0:30)
B |-0---0-0--0--0--0--0--0--0--0----0--0---0-0--0-|
Gb|-7/8-8-8--0--5--5--5--5--0--3/5--0--7/8-8-8--0-|
D |-----------------------------------------------|
A |-----------------------------------------------|
E |-----------------------------------------------|
B |-----------------------------------------------|
  |
  |
B |-----------------------------------------------|
Gb|-----------------------------------------------|
D |-----------------------------------------------|
A |-----------------------------------------------|
E |-----------------------------------------------|
B |------------------------------------------12\2-|

(0:34)
B |---
Gb|---
D |---
A |-2-
E |-2-
B |-0-
    Keep hitting the B5 powerchord from (0:34) to (1:10)

(1:10)
B |------------------------------------------------------------------|
Gb|------------------------------------------------------------------|
D |-------------------------------------------------9--9--9--9--9--9-|
A |-2--2--2--2--2--2--2--2--2--2--2--2--2--2--2--2--9--9--9--9--9--9-|
E |-2--2--2--2--2--2--2--2--2--2--2--2--2--2--2--2--7--7--7--7--7--7-|
B |-0--0--0--0--0--0--0--0--0--0--0--0--0--0--0--0--0--0--0--0--0--0-|
  | PM..............................................................
  |
B |-------------------------------------------------0--0--0--0--0--0--|
Gb|-------------------------------------------------5--5--5--5--5--5--|
D |-------------------------------------------------------------------|
A |-2--2--2--2--2--2--2--2--2--2--2--2--2--2--2--2--------------------|
E |-------------------------------------------------------------------|
B |-------------------------------------------------------------------|

(1:22)
B |------------------------------------------------------------------|
Gb|------------------------------------------------------------------|
D |-9--9--9--9--9--9--9--9--9--9-------------------------------------|
A |-9--9--9--9--9--9--9--9--9--9--2--2--2--2--2--2--2--2--2--2--2--2-|
E |-7--7--7--7--7--7--7--7--7--7--2--2--2--2--2--2--2--2--2--2--2--2-|
B |-0--0--0--0--0--0--0--0--0--0--0--0--0--0--0--0--0--0--0--0--0--0-|
  | PM..............................................................
  |
B |-0--0--0--0--0--0--0--0--0--0-------------------------------------|
Gb|-5--5--5--5--5--5--5--5--5--5-------------------------------------|
D |------------------------------------------------------------------|
A |-------------------------------2--2--2--2--2--2--2--2--2--2--2--2-|
E |------------------------------------------------------------------|
B |------------------------------------------------------------------|

(1:33)
B |------------------------------------------------------------|
Gb|------------------------------------------------------------|
D |-------------9--9--9--9--9--9--9--9--9--9--9--9--9--9--9--9-|
A |-2--2--2--2--9--9--9--9--9--9--9--9--9--9--9--9--9--9--9--9-|
E |-2--2--2--2--7--7--7--7--7--7--7--7--7--7--7--7--7--7--7--7-|
B |-0--0--0--0--0--0--0--0--0--0--0--0--0--0--0--0--0--0--0--0-|
  | PM........................................................
  |
B |-------------0--0--0--0--0--0--0--0--0--0--0--0--0--0--0--0-|
Gb|-------------5--5--5--5--5--5--5--5--5--5--5--5--5--5--5--5-|
D |------------------------------------------------------------|
A |-2--2--2--2-------------------------------------------------|
E |------------------------------------------------------------|
B |------------------------------------------------------------|

(1:44)
B |---
Gb|---
D |---
A |-2-
E |-2-
B |-0-
    The hitting the B5 powerchord from (1:44) to (1:58)

(1:59)
B |------------------------------------------------------------|
Gb|------------------------------------------------------------|
D |-4--4--4--4--4--4--4-5-4-2--------------------------4--4--4-|
A |-4--4--4--4--4--4--4-5-4-2--2--2--2--2--2--2--2--2--4--4--4-|
E |-2--2--2--2--2--2--2-3-2-0--2--2--2--2--2--2--2--2--2--2--2-|
B |----------------------------0--0--0--0--0--0--0--0----------|

(2:09)
B |------------------------------------------------------------|
Gb|------------------------------------------------------------|
D |-4--4--4--4-5-4-2--------------------------4--4--4--4--4--4-|
A |-4--4--4--4-5-4-2--2--2--2--2--2--2--2--2--4--4--4--4--4--4-|
E |-2--2--2--2-3-2-0--2--2--2--2--2--2--2--2--2--2--2--2--2--2-|
B |-------------------0--0--0--0--0--0--0--0-------------------|

(2:19)
B |------------------------------------------------------------|
Gb|------------------------------------------------------------|
D |-4-5-4-2--------------------------4--4--4--4--4--4--4-5-4-2-|
A |-4-5-4-2--2--2--2--2--2--2--2--2--4--4--4--4--4--4--4-5-4-2-|
E |-2-3-2-0--2--2--2--2--2--2--2--2--2--2--2--2--2--2--2-3-2-0-|
B |----------0--0--0--0--0--0--0--0----------------------------|

(2:29)
B |---
Gb|---
D |---
A |-2-
E |-2-
B |-0-
    Keep hitting B5 powerchord from (2:29) to (3:00)

(3:00)
B |------------------------------------------------------------------|
Gb|------------------------------------------------------------------|
D |-------------------------------------------------9--9--9--9--9--9-|
A |-2--2--2--2--2--2--2--2--2--2--2--2--2--2--2--2--9--9--9--9--9--9-|
E |-2--2--2--2--2--2--2--2--2--2--2--2--2--2--2--2--7--7--7--7--7--7-|
B |-0--0--0--0--0--0--0--0--0--0--0--0--0--0--0--0--0--0--0--0--0--0-|
  | PM..............................................................
  |
B |-------------------------------------------------0--0--0--0--0--0--|
Gb|-------------------------------------------------5--5--5--5--5--5--|
D |-------------------------------------------------------------------|
A |-2--2--2--2--2--2--2--2--2--2--2--2--2--2--2--2--------------------|
E |-------------------------------------------------------------------|
B |-------------------------------------------------------------------|
  |
  |    (Delay)                 (Delay)                 (Delay)
B |-19-(19)-(19)-(19)-(19)--------------------------19-(19)-(19)-(19--|
Gb|-------------------------17-(17)-(17)-(17)-(17)--------------------|
D |-------------------------------------------------------------------|
A |-------------------------------------------------------------------|
E |-------------------------------------------------------------------|
B |-------------------------------------------------------------------|

(3:12)
B |------------------------------------------------------------------|
Gb|------------------------------------------------------------------|
D |-9--9--9--9--9--9--9--9--9--9-------------------------------------|
A |-9--9--9--9--9--9--9--9--9--9--2--2--2--2--2--2--2--2--2--2--2--2-|
E |-7--7--7--7--7--7--7--7--7--7--2--2--2--2--2--2--2--2--2--2--2--2-|
B |-0--0--0--0--0--0--0--0--0--0--0--0--0--0--0--0--0--0--0--0--0--0-|
  | PM..............................................................
  |
B |-0--0--0--0--0--0--0--0--0--0-------------------------------------|
Gb|-5--5--5--5--5--5--5--5--5--5-------------------------------------|
D |------------------------------------------------------------------|
A |-------------------------------2--2--2--2--2--2--2--2--2--2--2--2-|
E |------------------------------------------------------------------|
B |------------------------------------------------------------------|
  |
  | (Delay)  (Delay)                 (Delay)                 (Delay)
B |-(19)--24-(24)-(24)-(24)-(24)--19-(19)-(19)-(19)-(19)--24-(24)-(24--|
Gb|--------------------------------------------------------------------|
D |--------------------------------------------------------------------|
A |--------------------------------------------------------------------|
E |--------------------------------------------------------------------|
B |--------------------------------------------------------------------|

(3:23)
B |------------------------------------------------------------|
Gb|------------------------------------------------------------|
D |-------------9--9--9--9--9--9--9--9--9--9--9--9--9--9--9--9-|
A |-2--2--2--2--9--9--9--9--9--9--9--9--9--9--9--9--9--9--9--9-|
E |-2--2--2--2--7--7--7--7--7--7--7--7--7--7--7--7--7--7--7--7-|
B |-0--0--0--0--0--0--0--0--0--0--0--0--0--0--0--0--0--0--0--0-|
  | PM........................................................
  |
B |-------------0--0--0--0--0--0--0--0--0--0--0--0--0--0--0--0-|
Gb|-------------5--5--5--5--5--5--5--5--5--5--5--5--5--5--5--5-|
D |------------------------------------------------------------|
A |-2--2--2--2-------------------------------------------------|
E |------------------------------------------------------------|
B |------------------------------------------------------------|
  |
  | (Delay)       (Delay)                 (Delay)
B |-(24)-(24)--19-(19)-(19)-(19)-(19)--24-(24)-(24)-(24)-(24)--|
Gb|------------------------------------------------------------|
D |------------------------------------------------------------|
A |------------------------------------------------------------|
E |------------------------------------------------------------|
B |------------------------------------------------------------|

(3:34)
B |---
Gb|---
D |---
A |-2-
E |-2-
B |-0-
    Keep hitting the B5 powerchord from (3:34) to (3:48)

(3:49)
B |--------------------------------------------------------------|
Gb|--------------------------------------------------------------|
D |-4--4--4--4--4--4--4-2b3--------------------------4--4--4--4--|
A |-4--4--4--4--4--4--4-2b3--2--2--2--2--2--2--2--2--2--4--4--4--|
E |-2--2--2--2--2--2--2-0~---2--2--2--2--2--2--2--2--2--2--2--2--|
B |--------------------------0--0--0--0--0--0--0--0--------------|

(3:55)
B |-------------------------------------------------------------|
Gb|-------------------------------------------------------------|
D |-4--4--4-5~--------------------------4--4--4--4--4--4--4-2b3-|
A |-4--4--4-5~--2--2--2--2--2--2--2--2--4--4--4--4--4--4--4-2b3-|
E |-2--2--2-3~--2--2--2--2--2--2--2--2--2--2--2--2--2--2--2-0---|
B |-------------0--0--0--0--0--0--0--0--------------------------|

(4:09)
B |------------------------------------------------|
Gb|------------------------------------------------|
D |-------------------------4--4--4--4--4--4--4-5~-|
A |-2--2--2--2--2--2--2--2--4--4--4--4--4--4--4-5~-|
E |-2--2--2--2--2--2--2--2--2--2--2--2--2--2--2-3~-|
B |-0--0--0--0--0--0--0--0-------------------------|

(4:17)
B |---
Gb|---
D |---
A |-2-
E |-2-
B |-0-
    Keep hitting the B5 powerchord from (4:17) to (4:25)

(4:25)
B |---|-0
Gb|---|-0
D |---|-0
A |-2-|-2
E |-2-|-2
B |-0-|-0
    PM  PM
    Keep hitting the B5 powerchord from (4:25) to the rest of the song.
    Hit the open D,Gb, and B strings together every now and then as well.

Thanks for checking out my tab! Be sure to let me know what you think by rating or commenting!
Tap to rate this tab
 
# A B C D E F G H I J K L M N O P Q R S T U V W X Y Z