Song name
# A B C D E F G H I J K L M N O P Q R S T U V W X Y Z

Pennywise - Astro Zombies tab

this is from the Violent World Misfits tribute album.
i am 97% sure this is accurate 

intro
e|---------------------------------------|
b|---------------------------------------|
g|-5-5-5-4-4-------------2-2-2-2-4-4-4-4-|
d|-5-5-5-4-4--7-7-7-5-5--3-3-3-3-5-5-5-5-|
a|-3-3-3-2-2--7-7-7-5-5--3-3-3-3-5-5-5-5-|
E|------------5-5-5-3-3--1-1-1-1-3-3-3-3-|

riff 1
e|---------------------------------------|
b|---------------------------------------|
g|-5-5-5-5-5-5-10-10-9--2-2-2-2-4-4-4-4--|
d|-5-5-5-5-5-5-10-10-9--3-3-3-3-5-5-5-5--|
a|-3-3-3-3-3-3-8--8--7--3-3-3-3-5-5-5-5--|
E|----------------------1-1-1-1-3-3-3-3--|

verse
e|-------------------5~------------------|
b|-------------------5~------------------|
g|-5-5-5-5-5-5-5-5---5~------------------|
d|-5-5-5-5-5-5-5-5---7-7-7-7-7-7-7-7-----|
a|-3-3-3-3-3-3-3-3---7-7-7-7-7-7-7-7-----|
E|-------------------5-5-5-5-5-5-5-5-----|

e|---------------------------------------|
b|-9-9-9-9-9-9-9-9-----------------------|
g|-9-9-9-9-9-9-9-9--2-2-2-2-4-4-4-4------|
d|-9-9-9-9-9-9-9-9--3-3-3-3-5-5-5-5------|
a|-7-7-7-7-7-7-7-7--3-3-3-3-5-5-5-5------|
E|------------------1-1-1-1-3-3-3-3------|

Chorus
e|------------------5--------------------|
b|------------------5--------------------|
g|-5-5-5-5-5-5-5-5--5--------------------|
d|-5-5-5-5-5-5-5-5--7-7-7-7-7-7-7-7------|
a|-3-3-3-3-3-3-3-3--7-7-7-7-7-7-7-7------|
E|------------------5-5-5-5-5-5-5-5------|

e|---------------------------------------|
b|---------------------------------------|
g|-7-7-7-7-7-7-7-7--4-4-4-4-4-4-4-4------|
d|-7-7-7-7-7-7-7-7--5-5-5-5-5-5-5-5------|
a|-5-5-5-5-5-5-5-5--5-5-5-5-5-5-5-5------|
E|------------------3-3-3-3-3-3-3-3------|

outro
e|---------------------------------------|
b|---------------------------------------|
g|-5-5-5-4-4-------------2-2-2-2-2-2-----|
d|-5-5-5-4-4--7-7-7-5-5--3-3-3-3-3-3-----|
a|-3-3-3-2-2--7-7-7-5-5--3-3-3-3-3-3-----|
E|------------5-5-5-3-3--1-1-1-1-1-1-----|

e|---------------------------------------|
b|------------------5--------------------|
g|-4-4-4-4-4-4------5-------------5------|
d|-5-5-5-5-5-5------5-------------5------|
a|-5-5-5-5-5-5------3-------------3------|
E|-3-3-3-3-3-3---------------------------|

intro: x2
riff 1: x2
verse: x2
chorus: x2
riff 1: x2
verse: x2
chorus: x2
riff 1: x4
intro: x1
outro: x1
Tap to rate this tab
# A B C D E F G H I J K L M N O P Q R S T U V W X Y Z