Pennywise - Rise Up tab

-----------------------------------------------------------------------------
			     Rise Up - Pennywise
-----------------------------------------------------------------------------
Tabbed by:Simaonofre
Email:simaonofre@hotmail.com

Tuning: EADGBe

Intro:

e|---------------------------------------------------------------------|
B|---------------------------------------------------------------------| play
G|-------------------------------------------------------11-11-11-11-11| this
D|----4-4xxx-7-7xxx-9-9-7-7-4-4----4-4xxx-7-7xxx-9-9-7-7-11-11-11-11-11| 2x
A|----4-4xxx-7-7xxx-9-9-7-7-4-4----4-4xxx-7-7xxx-9-9-7-7-9--9--9--9--9-|
E|----2-2xxx-5-5xxx-7-7-5-5-2-2----2-2xxx-5-5xxx-7-7-5-5---------------|

e|------------------------------------------------------------|
B|------------------------------------------------------------|  Play this
G|-------------------------------------------11-11-11-11-11-11|
D|----4-4-4-7-7-7-9-9-7-7-7-7----4-4-4-7-7-7-11-11-11-11-11-11|   2x
A|----4-4-4-7-7-7-9-9-7-7-7-7----4-4-4-7-7-7-9--9--9--9--9--9-|
E|----2-2-2-5-5-5-7-7-5-5-2-2----2-2-2-5-5-5-7-7-5-5----------|

Now it comes a tricky part:

e|---------------------------------------------|
B|---------------------------------------------|
G|-------------4-4-4---4------------9-9-9-4-4-4|  Play this 2 times
D|--4-4-4-7-4--4-4-4-7-4--4-4-4-7-4-9-9-9-4-4-4|
A|--4-4-4-7-4--2-2-2-7-2--4-4-4-7-4-7-7-7-2-2-2|
E|--2-2-2-5-2--------5----2-2-2-5-2------------|

Verse:

e|----------------------|
B|----------------------|
G|------------------9-9-| play this for about 8 times
D|--4x-4x-2-2-4x-4x-9-9-|
A|--4x-4x-2-2-4x-4x-7-7-|
E|--2x-2x-0-0-2x-2x-----|

Then comes the softer part:

e|--------------------------------------------------------------------|
B|--------------------------------------------------------------------|
G|--------------------------------------------------------------------|
D|-4x-4x-4x-4x-4x-4x-4x-4x-7x-7x-7x-7x-7x-7x-7x-7x-9x-9x-9x-9x-9x-9x--|
A|-4x-4x-4x-4x-4x-4x-4x-4x-7x-7x-7x-7x-7x-7x-7x-7x-9x-9x-9x-9x-9x-9x--|
E|-2x-2x-2x-2x-2x-2x-2x-2x-5x-5x-5x-5x-5x-5x-5x-5x-7x-7x-7x-7x-7x-7x--|

Chorus:

e|--------------------|
B|--------------------|
G|---------9----------|   4 times
D|-4-4-4-7-9-9-9-9-9-9|
A|-4-4-4-7-7-9-9-9-9-9|
E|-2-2-2-5---7-7-7-7-7|

Fill in:

e|-------------------------------|
B|-------------------------------|
G|-----------------11-11-11-11-11|
D|-4-4-4-4-4-4-4-4-11-11-11-11-11|
A|-4-4-4-4-4-4-4-4-9--9--9--9--9-|
E|-2-2-2-2-2-2-2-2---------------|

After this play the verse again and then the chorus.

Then play this 8 times:

e|---------------------------------------------------------------------|
B|---------------------------------------------------------------------| 
G|-------------------------------------------------------11-11-11-11-11| 
D|----4-4xxx-7-7xxx-9-9-7-7-4-4----4-4xxx-7-7xxx-9-9-7-7-11-11-11-11-11| 
A|----4-4xxx-7-7xxx-9-9-7-7-4-4----4-4xxx-7-7xxx-9-9-7-7-9--9--9--9--9-|
E|----2-2xxx-5-5xxx-7-7-5-5-2-2----2-2xxx-5-5xxx-7-7-5-5---------------|

And finally the chorus again.

************************************

| /   slide up
| \   slide down
| h   hammer-on
| p   pull-off
| ~   vibrato
| +   harmonic
| x   Mute note
| b   Bend
| pb  Pre-bend
| br  Bend release
| pbr Pre-bend release
| brb Bend release bend

************************************

Siamonofre
Tap to rate this tab
 
# A B C D E F G H I J K L M N O P Q R S T U V W X Y Z