Song name
# A B C D E F G H I J K L M N O P Q R S T U V W X Y Z

Pepper - Back Home tab

-------------------------------------------------------------------------------
			     Back Home - Pepper
-------------------------------------------------------------------------------
Tabbed by:Pepper_s
Email:Skip@37.com
Tuning:standard


Alright, so the couple of tabs for this tune on here are generally right notes/chords, 
don't sound much like the original recording or likve versions. So, i figured i'd tab out 
better sounding version.


Verse:

You can really play this song two ways the meaty power chord one & the more ska-like 
one. They play it either way cuz Pepper can be real ska or make it heavy so it's good to 
both.

Power Chords:
e|------------x-------x--------x-----------------------------|
B|------------x-------x---12---x---10------------------------|
G|-------7\9--x--7-7--x---11---x---9-------------------------|
D|-------7/9--x--7-7--x---9----x---7-------------------------|
A|------ 5\7--x--5-7--x--------------------------------------|
E|------------x-------x--------------------------------------|

Octaves:
e|------------x-------x--------x-----------------------------|
B|------------x-------x---12---x---10------------------------|
G|-------7\9--x--7-7--x--------x-----------------------------|
D|------------x-------x---9----x---7-------------------------|
A|------ 5\7--x--5-7--x--------------------------------------|
E|------------x-------x--------------------------------------|


Chorus:


Pt 1: I'm not as sure about this cuz it's pretty distorted, but i think it's just 
eigth notes.
e|------------------------------|
B|------------------------------|
G|------------------------------|
D|------2----4----7---9---------|
A|------2----4----7---9---------|
E|------0----2----5---7---------|

Pt 2: The verse guitar part is overdubbed on this:
e|------------------------------|
B|------------------------------|
G|---------------7-7-x--7-7-xx--|
D|-7-7-x--5-5-x--7-7-x--7-7-xx--|
A|-7-7-x--5-5-x--9-9-x--5-5-xx--|
E|-5-5-x--3-3-x-----------------|


There it is, good song simple song,
please accept/vote for this tab.
Tap to rate this tab
# A B C D E F G H I J K L M N O P Q R S T U V W X Y Z