Guitaretab - guitar tabs
Song name
# A B C D E F G H I J K L M N O P Q R S T U V W X Y Z
Home / P / Pepper / 7 Weeks tab

Pepper - 7 Weeks tab

-------------------------------------------------------------------------------
		                               7 Weeks - Pepper
-------------------------------------------------------------------------------
Tabbed by: Hostile Apostle

Please send suggestions and corrections to Mareed129@aol.com

Tuning: Standard


Palm Mute (0:02)
e|--------------------------------------------------|
B|--------------------------------------------------|
G|--------------------------------------------------|
D|--------------7-7-7-7-7------------7-7-7-7-7------|
A|----5-5-0-5-5------------4-4-0-4-4----------------|
E|--------------------------------------------------|

e|--------------------------------------------------|
B|--------------------------------------------------|
G|--------------------------------------------------|
D|--------------5-5-5-5-5---------------------------| x3
A|----3-3-0-3-3------------2-2-0-2-0---2/5----------|
E|-----------------------------------3--------------|


Palm Mute (0:39)
e|--------------------------------------------------|
B|--------------------------------------------------|
G|------------6-6----------------6-6----------------|
D|--------7-7-----7-7--------7-7-----7-7------------|
A|----7-7----------------7-7------------------------|
E|--------------------------------------------------|

e|--------------------------------------------------|
B|--------------------------------------------------|
G|------------6-6----------------6-6----------------|
D|--------6-6-----6-6--------6-6-----6-6------------|
A|----7-7----------------7-7------------------------|
E|--------------------------------------------------|

e|--------------------------------------------------|
B|--------------------------------------------------|
G|------------6-6----------------6-6----------------|
D|--------5-5-----5-5--------5-5-----5-5------------|
A|----7-7----------------7-7------------------------|
E|--------------------------------------------------|

e|--------------------------------------------------|
B|--------------------------------------------------|
G|------------6-6----------------6-6----------------|
D|--------4-4-----4-4--------4-4-----4-4------------| x2
A|----7-7----------------7-7------------------------|
E|--------------------------------------------------|


(1:04)
e|----5----5----3----3-----|------------------------|
B|----6----5----5----3-----|------------------------|
G|----7----6----5----4-----|------------------------|
D|----7----7----5----5-----|------------------------|
A|----5----7----3----5-----|--------3---------------|
E|---------5---------3-----|----3h5---5-------------|
[ Tab from: http://www.guitaretab.com/p/pepper/192788.html ]
(1:16)
e|------------3---------3------------5---------5----|
B|------------3---------3------------6---------6----|
G|------------4---------4----7-7-7-7-7-7-7-7-7-7----|
D|----5-5-5-5-5-5-5-5-5-5----7-7-7-7-7-7-7-7-7-7----| x2
A|----5-5-5-5---5-5-5-5------5-5-5-5---5-5-5-5------|
E|----3-3-3-3---3-3-3-3-----------------------------|
     |--PM---| |--PM---|    |--PM---| |--PM---|
(1:29)
e|----1----7----------------------------------------|
B|----1----8----------------------------------------|
G|----2----9----------------------------------------|
D|----3----9----------------------------------------|
A|----3----7----------------------------------------|
E|----1---------------------------------------------|

You rip my guts with every sharp word
When you use that monster
Hiding underneath your tongue
My words donít, they donít work on you
No, they donít work like they used to

ĎCause itís been seven weeks, seven weeks
Oh, seven weeks, since I called you
When I try now, I just canít get through
So far, the drinks have been so strong
No writing on the post cards
No memories to hang on

Sleeping in my six oí clock shadow
People judging people so shallow
I call you up to see what youíre doing
To see if you wonít

Send me your love, right through the ceiling
I need your love, darliní this evening
Oh, momma, momma, momma, what can I do

Well there's a jukebox baby
And you can play our favorite song all night
'Til your moneys gone
ĎCause if Iím right about you darliní
Then youíre probably laying in bed
And your temperature is boiling
ĎCause your making things up in your head

Itís been seven weeks, seven weeks
Oh, seven weeks, since I called you
When I try now, just canít get through
So far, the days have been so long
But now I got my fade on
Screaming at you at the top of my lungs

Fog is lifting from the old man
I had so much fun in the trash can
I wave my flag but you still send your troops in
To the war in your soul

Send me your love, right through the ceiling
I need your love, darliní this evening
Oh, momma, momma, momma, what can I do

Backstage pass through these time zones
I Want you everyday but Iím not home
I Canít really touch you through the cell phone
There's so many things that you just donít know

Itís been seven weeks, seven weeks
Oh, seven weeks, since I called you
When I try now, just canít get through
So far, the drinks are still so strong
Now thereís writing on the post cards
Baby, seven weeks is just too long

| PM palm mute
| /  slide up
| \  slide down
| h  hammer-on
| p  pull-off
| ~  vibrato
| +  harmonic
| x  Mute note
===============================================================================
Related for 7 Weeks tab