Song name
# A B C D E F G H I J K L M N O P Q R S T U V W X Y Z

Pietasters - Movin On Up tab

Moving On Up
The Pietasters

Intro
|-------|--------|-13-/13-|-18-/18--|
|--7-/7-|-12-/12-|--------|---------|
|-------|--------|--------|---------|
|-------|--------|--------|---------|
|-------|--------|--------|---------|
|-------|--------|--------|---------|

Verse/Chorus
|--7-x-x-7-x-x-7-x-x-6--|
|--7-x-x-7-x-x-7-x-x-7--|
|--8-x-x-8-x-x-8-x-x-6--|
|-----------------------|
|-----------------------|
|-----------------------|


There is a solo, however it's too distorted and I'm too tired to figure it out


Tap to rate this tab
 
# A B C D E F G H I J K L M N O P Q R S T U V W X Y Z