Song name
# A B C D E F G H I J K L M N O P Q R S T U V W X Y Z

Pietasters - Freak Show tab

Help us improve GuitareTab! Take a short survey!
Freak Show
The Pietasters

Intro
|--/9---8--7--6--|
|--/9---9--7--7--|
|--/10--8--8--6--|
|----------------|
|----------------|
|----------------|

Verse
|--9--x-8-x-7-x-6-x--|
|--9--x-9-x-7-x-7-x--|
|--10-x-8-x-8-x-6-x--|
|--------------------|
|--------------------|
|--------------------|

Solo
|---------------------------------------------------------------|
|--/11-/11-/11-/11----------------------------------------------|
|-------------------13-13-13-13-13-13--11-11-11-11--10----------|
|-------------------------------------------------------13--11--|
|---------------------------------------------------------------|
|---------------------------------------------------------------|

Related for Freak Show tab