Song name
# A B C D E F G H I J K L M N O P Q R S T U V W X Y Z

Pietasters - Perfect World tab

Perfect World
The Pietasters

Intro
|--7-7-7-7--5-5-5-5--|--7-7-7-7--5-5-5-5--|
|--7-7-7-7--5-5-5-5--|--7-7-7-7--5-5-5-5--|
|--8-8-8-8--6-6-6-6--|--8-8-8-8--6-6-6-6--|
|--------------------|--------------------|
|--------------------|--------------------|
|--------------------|--------------------|

|--3-3--5-5--3-3--5-5--2--|
|--3-3--5-5--3-3--5-5--2--|
|--4-4--6-6--4-4--6-6--3--|
|-------------------------|
|-------------------------|
|-------------------------|

Verse
|--7-7-7-7--5-5-5-5--|
|--7-7-7-7--5-5-5-5--|
|--8-8-8-8--6-6-6-6--|
|--------------------|
|--------------------|
|--------------------|

Chorus          
|--7-7-7--9--9--9---7-7-7--5-5-5--7-7-7--9--9--9---7-7-7-7-7-7-7--|
|--7-7-7--10-10-10--7-7-7--5-5-5--7-7-7--10-10-10--7-7-7-7-7-7-7--|
|--8-8-8--9--9--9---8-8-8--6-6-6--8-8-8--9--9--9---8-8-8-8-8-8-8--|
|-----------------------------------------------------------------|
|-----------------------------------------------------------------|
|-----------------------------------------------------------------|



Tap to rate this tab
# A B C D E F G H I J K L M N O P Q R S T U V W X Y Z