Song name
# A B C D E F G H I J K L M N O P Q R S T U V W X Y Z

Pietasters - Without You tab

Without You
The Pietasters


Intro
|--------11-------|-------11-------|-------13-------|-------11-------|
|-----13----13----|----11----11----|----15----15----|----11----11----|
|--13----------13-|-12----------12-|-15----------15-|-12----------12-|
|-----------------|----------------|----------------|----------------|
|-----------------|----------------|----------------|----------------|
|-----------------|----------------|----------------|----------------|

Verse 
|--11---11---13---11--|
|--13---11---15---11--|
|--13---12---15---12--|
|---------------------|
|---------------------|
|---------------------|
*upstrokes 

Bridge
|--------11-|-------11-|-------13-|-------11-|
|-----13----|----11----|----15----|----11----|
|--13-------|-12-------|-15-------|-12-------|
|-----------|----------|----------|----------|
|-----------|----------|----------|----------|
|-----------|----------|----------|----------|

Breakdown
|-------------|------------------|-----------------|
|-------------|------------------|-----------------|
|-------------|------------------|-----------------|
|-------6-----|------6-8-6-------|------6----0-0-0-|
|--8-10---10--|-8-10-------10-8--|-8-10---10-------|
|-------------|------------------|-----------------|
*played faintly in the background, really smooth


that's pretty much it
rct2head@hotmail.com



Tap to rate this tab
 
# A B C D E F G H I J K L M N O P Q R S T U V W X Y Z