Song name
# A B C D E F G H I J K L M N O P Q R S T U V W X Y Z

Pillows - Riding On A Shooting Star tab

Help us improve GuitareTab! Take a short survey!
=----------------------*Ride On Shooting Star*--------------------=
Tabbed By: Ben Burgos
Artist: The Pillows
Song: Ride On Shooting Star
Email: benburgos@msn.com
AIM: xXBountySpikeXx

Intro/Verses:                A7
E|------------------|-33--333----|
B|------------------|-22--222----|
G|--777/------------|-22--222----|
D|----------4^------|-22--222----|  x8
A|-------0----------|------------|
E|------------------|------------|
                     Strum = Down, Up.. Up, Down, Up

Chorus:
PALM MUTE ALL
  (Part 1)
E|---------------------------------------------------------------
B|---------------------------------------------------------------
G|---------------------------------------------------------------
D|------------------44444444-------------------22222222-77777777- Cont.Below
A|55555555-44444444-22222222-22222222-55555555-00000000-55555555-
E|33333333-22222222----------00000000-33333333-------------------

Chorus (Continued):
NO PALM MUTE      
  (Cont. from 1)   (2nd Part)
E|---------------|-----------------------------------------------
B|---------------|-----------------------------------------------
G|---------------|-----------------------------------------------
D|2-4-2-4-2-4-2-4|---------42-7\--------33-44444444--------------
A|0-2-0-2-0-2-0-2|55555555-20-5\-222222/11\22222222--------------
E|---------------|33333333-------000000--------------------------


Alright so now you know what to play.. now for when to play it.

Intro x8..
Chorus x1 (Part 1)
Chorus x2 (Part 2)
Intro x6
Chorus x1 (Part 1)
Chorus x4 (Part 2)
Intro x4

And that.. ladies and gentlemen.. is that.
Thanks for checking this tab out, email me and let me know what you think!
Related for Riding On A Shooting Star tab