Song name
# A B C D E F G H I J K L M N O P Q R S T U V W X Y Z

Pink Floyd - Shine On You Crazy Diamond Part 2 tab

                        Shine On You Crazy Diamond (Part 2)
                               Wish You Were Here
                                  Pink Floyd

Tabbed by Ste Waugh
stephen_waugh@hotmail.co.uk

NOTE:
Tablatures are used as a shorthand, so you cannot expect to have everything
 you need in this tab, e.g Time elements.
Make sure you have the song playing whilst you are using this, so you can
 suit to the timing, and adjust it how you feel.


Setup:

 - Standard tuning
 - Tough guitarist fingers (there is a fair amount of bends)
 - Dave Gilmour plays this on his Fender Stratocaster
   using the neck pickup, heavily compressed sound and reverb.

Play:

 - In Free time, there isnt any rythm guitar or drum in this piece.


         ====================================================
                               The Tab                      
         ====================================================


Begins at 2:09

e|---------------------------------------------------------------------------|
B|----18>(20)~~~~~~~~~~~----------18-----18>(20)~~~~~~~~~~~------------------|
G|---------------------------------------------------------------------------|
D|---------------------------------------------------------------------------|
A|---------------------------------------------------------------------------|
E|---------------------------------------------------------------------------|



e|---------------------------------------------------------------------------|
B|---------------------------------------------------------------------------|
G|-------15--17--17>(19)-----17--17>(19)~~~~~~~~~~~--------------------------|
D|---17----------------------------------------------------------------------|
A|---------------------------------------------------------------------------|
E|---------------------------------------------------------------------------|


      pr
e|---------------------------------------------------------------------------|
B|---------------------------------------------------------------------------|
G|---17>(19)<17p15--17----17>(19)--17--17>(19)~~~~~~~~~~~--------------------|
D|---------------------------------------------------------------------------|
A|---------------------------------------------------------------------------|
E|---------------------------------------------------------------------------|



e|---------------------------------------------------------------------------|
B|---10h11p10------10--------------------------------------------------------|
G|-------------12------10--10------10~~~~~~~~~~~-----------------------------|
D|-----------------------------12--------------------------------------------|
A|---------------------------------------------------------------------------|
E|---------------------------------------------------------------------------|


                  hold bend ญญญญญญญญญญ-----|   
e|---------------------------------------------------------------------------|
B|---------------------------------------------------------------------------|
G|--12>(15)<12----12>(15)~~~~(15)<12---10h12--12>(15)~~~~~~~~~~~-------------|
D|---------------------------------------------------------------------------|
A|---------------------------------------------------------------------------|
E|---------------------------------------------------------------------------|



e|---------------------------------------------------------------------------|
B|--------------------------------------18--18>(20)~~~~~~~~~~~---------------|
G|--12>(15)<12--10--12--12~~~--17>(19)---------------------------------------|
D|---------------------------------------------------------------------------|
A|---------------------------------------------------------------------------|
E|---------------------------------------------------------------------------|



e|----------15--18~~~~~~~~~~~---18>(20)--18\---------------------------------|
B|--18>(20)------------------------------------------------------------------|
G|----------------------------------------------17>(18)<17-15----------------|
D|---------------------------------------------------------------------------|
A|---------------------------------------------------------------------------|
E|---------------------------------------------------------------------------|


                           hold bend ญญญญญญญญญญญญญญญ---------|
e|---------------------------------------------------------------------------|
B|---------------------------------------------------------------------------|
G|------10--12~~~~~~~~~~~--12>(15)--(15)--(15)<12----10h12~~~~~~~~~~~--------|
D|--12-----------------------------------------------------------------------|
A|---------------------------------------------------------------------------|
E|---------------------------------------------------------------------------|


     pr
e|---------------------------------------------------------------------------|
B|---------------------------------------------------------18----------------|
G|--17>(19)<17p15--17--17>(19)~~~~~~~~~~~----------17>(19)-------------------|
D|---------------------------------------------------------------------------|
A|---------------------------------------------------------------------------|
E|---------------------------------------------------------------------------|



e|-----------15--------------------------------------------------------------|
B|--18>(20)------18>(20)~~~~~~--------18>(20)<18p15--------------------------|
G|---------------------------------------------------17>(19)~~~~~~-----------|
D|---------------------------------------------------------------------------|
A|---------------------------------------------------------------------------|
E|---------------------------------------------------------------------------|


     pr
e|---------------------------------------------------------------------------|
B|---------------------------------------------------------------------------|
G|--17>(19)<17p15--17--17-----------------15~~~~~~~~~~~----------------------|
D|---------------------------------15h17-------------------------------------|
A|---------------------------------------------------------------------------|
E|---------------------------------------------------------------------------|


     pr
e|---------------------------------------------------------------------------|
B|-----------------------------------------------18--------------------------|
G|--17>(19)<17p15--17--17>(19)----------17>(19)------17>(19)-----------------|
D|---------------------------------------------------------------------------|
A|---------------------------------------------------------------------------|
E|---------------------------------------------------------------------------|



e|-----------15--18--------------18--20>(22)----18>20<18--17------15---------|
B|--18>(20)---------------------------------------------------18-------------|
G|---------------------------19----------------------------------------------|
D|---------------------------------------------------------------------------|
A|---------------------------------------------------------------------------|
E|---------------------------------------------------------------------------|


     ====================================================================
                                   Legend
     ====================================================================


| >               - Bend the note
| <               - Release bend
| ~~~~~~~~~~~     - Vibrato
| hold bend ----|ญญญญญญญญญญ - Hold bend
| (n)             - Desired note to bend to
| /               - Slide up
| \               - Slide down
| pr              - Pre-bend
| p               - Pull off
| h               - Hammer-on

===============================================================================
       If You Have Any Requests, Contact Me And I Will See What I Can Do!
===============================================================================
Tap to rate this tab
# A B C D E F G H I J K L M N O P Q R S T U V W X Y Z