Song name
# A B C D E F G H I J K L M N O P Q R S T U V W X Y Z

Placebo - Bitter End tab

#----------------------------------PLEASE NOTE---------------------------------#
#This file is the author's own work and represents their interpretation of the #
#song. You may only use this file for private study, scholarship, or research. #
#------------------------------------------------------------------------------##
The Bitter End - PLACEBO
Words and music by Placebo.

(Transcribed by GG - pasgroumpf@yahoo.fr le 16.07.07)

Transcription using a Standard Tuning EADGBA

Chords:

     --------
  6  X X | | | o
     --------
     | | | | o |
     --------
     | | o o | |
     --------
       Emb (VI)

Couplet : Guitare1 --> Emb

Guitare 2 :
E---------------------------------------------------------------------------------------------------|
B---------------------------------------------------------------------------------------------------|
G---15-15-15-15-15-15-15-15-13-13-13-13-13-13-13-13-11-11-11-11-11-11-11-11-10-10-10-10-10-10-10-10-|
D---------------------------------------------------------------------------------------------------|
A---13-13-13-13-13-13-13-13-11-11-11-11-11-11-11-11--9--9--9--9--9--9--9--9--8--8--8--8--8--8--8--8-|
E---------------------------------------------------------------------------------------------------|

   /**** LET RING ***/
E---------------------------------------------------------------------------------------------------|
B---------------------------------------------------------------------------------------------------|
G---3-----------------------------------------------------------------------------------------------|
D---------------------------------------------------------------------------------------------------|
A---1-----------------------------------------------------------------------------------------------|
E---------------------------------------------------------------------------------------------------|


E---------------------------------------------------------------------------------------------------|
B---------------------------------------------------------------------------------------------------|
G---18-18-18-18-18-18-18-18-16-16-16-16-16-16-16-16-15-15-15-15-15-15-15-15-13-13-13-13-13-13-13-13-|
D---------------------------------------------------------------------------------------------------|
A---16-16-16-16-16-16-16-16-14-14-14-14-14-14-14-14-13-13-13-13-13-13-13-13-11-11-11-11-11-11-11-11-|
E---------------------------------------------------------------------------------------------------|

   /**** LET RING ***/
E-------|
B-------|
G---15--|
D-------|
A---13--|
E-------|


Refrain :

Guitare 1 (PIANO transcription)
E------11-----------------------14----------------------16----------------------18------------------|
B---7-----------------------9-----------------------11----------------------12----------------------|
G---------------------------------------------------------------------------------------------------|
D---------------------------------------------------------------------------------------------------|
A---------------------------------------------------------------------------------------------------|
E---------------------------------------------------------------------------------------------------|

Guitare 2:
E---------------------------------------------------------------------------------------------------|
B---------------------------------------------------------------------------------------------------|
G---18-18-18-18-18-18-18-18-16-16-16-16-16-16-16-16-15-15-15-15-15-15-15-15-13-13-13-13-13-13-13-13-|
D---------------------------------------------------------------------------------------------------|
A---16-16-16-16-16-16-16-16-14-14-14-14-14-14-14-14-13-13-13-13-13-13-13-13-11-11-11-11-11-11-11-11-|
E---------------------------------------------------------------------------------------------------|

Guitare 1 (PIANO)
E---------------------------------------------------------------------------------------------------|
B---16~~~~~~~~~~~~----------------------------------------------------------------------------------|
G---------------------------------------------------------------------------------------------------|
D---------------------------------------------------------------------------------------------------|
A---------------------------------------------------------------------------------------------------|
E---------------------------------------------------------------------------------------------------|

E---------------------------------------------------------------------------------------------------|
B---------------------------------------------------------------------------------------------------|
G---11-11-11-11-11-11-11-11-10-10-10-10-10-10-10-10--8--8--8--8--8--8--8--8--6--6--6--6--6--6--6--6-|
D---------------------------------------------------------------------------------------------------|
A----9--9--9--9--9--9--9--9--8--8--8--8--8--8--8--8--6--6--6--6--6--6--6--6--4--4--4--4--4--4--4--4-|
E---------------------------------------------------------------------------------------------------|
Tap to rate this tab
# A B C D E F G H I J K L M N O P Q R S T U V W X Y Z