Song name
# A B C D E F G H I J K L M N O P Q R S T U V W X Y Z

Placebo - English Summer Rain tab

                                             ENGLISH SUMMER RAIN-PLACEBO
saludos a alberto y a su abuela

TODO VA AFINADO EN TONOS STANDARD
EL SOLO DE GUITARRA USA UN POCO DE TREMOLO

Parte que va rapidísimo con sintetizador
----------------------------------------------|
-11--10--9--7--6--4--11-----------------------|
---10--11-8--6--5--3---10---------------------| se repite en toda la
----------------------------------------------|  canción
----------------------------------------------|
----------------------------------------------|

Efectos de la canción
------------------------------------------------|
-14-11----14-13--14-11--14---14---14-----14-11--|
--------------------------13---11----13---------|
------------------------------------------------|
------------------------------------------------|
------------------------------------------------|

Solo de guitarra
Parte 1
----------------------------------------------|
----------------------------------------------|
----------------------------------------------|
-7--8---7------3------------------------------| Varias veces
-5--10--5------1------------------------------|
----------------------------------------------|


parte 2
----------------------------------------------|
----------------------------------------------|
----------------------------------------------|
----9---------------3-------------------------| y se vuelve a repetir la
-7-----5---8---5----1-------------------------| parte 1
----------------------------------------------|


TABLATURA BAJO

----------1-3----------3-1----------1-3--------------|
-----------------------------------------------------| Y SE REPITE
-1-1-1-1-1----1-1-1-1-1---------------------------4--|
---------------------------2-2-2-2-2----2-2-2-2-2----|

-------------------------------------------------------|
-------------------------------------------------------| EN ALGUNAS PARTES
-1-1-1-1-1-1-1-1-1-1-1-1-1-1-------------------------4-| VA ESTO
-----------------------------2-2-2-2-2-2-2-2-2-2-2-2---|
Tap to rate this tab
# A B C D E F G H I J K L M N O P Q R S T U V W X Y Z