Song name
# A B C D E F G H I J K L M N O P Q R S T U V W X Y Z

Placebo - The Crawl tab

-------------------------------------------------------------------------------
			     THE CRAWL - Placebo
-------------------------------------------------------------------------------
Tabbed by:Luis Gustavo Hernández Collado
Email:ltavo_87@hotmail.com

Tuning:EADGBe

Intro
e|--------------------------------|
B|--------------------------------|
G|-3-1-------1--------------------|X2
D|-----4-4-4---4-3-3-3----3-3-3-3-|
A|---------------------1r--1-1-1--|
E|--------------------------------|
r=let ring

Verse 1
(It takes the pain away, but could not make you stay...)
e|--------------------------------|
B|--------------------------------|
G|-3-1-------1--------------------|
D|-----4-4-4---4-3-3-3----3-3-3-3-|
A|---------------------1r--1-1-1--|
E|--------------------------------|
r=let ring

e|--------------------------------|
B|--------------------------------|
G|-3-1-------1--------------------|
D|-----4-4-4---4-3-3-3----3-4-4-3-|
A|---------------------1r--1-1-1--|
E|--------------------------------|
r=let ring

e|--------------------------------|
B|--------------------------------|
G|--------------------------------|X2
D|-------------------3r--3-4-3----|
A|-----3r--3-3-3-1-1----1-1-------|
E|-2-2----2-2-2-------------------|
r=let ring

Chorus 1
(Lay me down, the lie will unfurl...)
e|-------------------------------------------|
B|-----------------------------------------3-|
G|-----1-------1-----------------------------|
D|---3---3---1-------3-4------3------3-4-----|
A|-2-------2-------2--------2------2-----2---|
E|-------------------------------------------|

Verse 2
(Your smile would make me sneeze, when we were siamese...)
e|--------------------------------|
B|--------------------------------|
G|-3-1-------1--------------------|
D|-----4-4-4---4-3-3-3----3-3-3-3-|
A|---------------------1r--1-1-1--|
E|--------------------------------|
r=let ring

e|--------------------------------|
B|--------------------------------|
G|-3-1-------1--------------------|
D|-----4-4-4---4-3-3-3----3-4-4-3-|
A|---------------------1r--1-1-1--|
E|--------------------------------|
r=let ring

e|--------------------------------|
B|--------------------------------|
G|--------------------------------|X2
D|-------------------3r--3-4-3----|
A|-----3r--3-3-3-1-1----1-1-------|
E|-2-2----2-2-2-------------------|
r=let ring

Chorus 2
(Lay me down, the lie will unfurl...)
e|-------------------------------------------|
B|-----------------------------------------3-|
G|-----1-------1-----------------------------|
D|---3---3---1-------3-4------3------3-4-----|
A|-2-------2-------2--------2------2-----2---|
E|-------------------------------------------|

Verse 3
(Don't go and lose your face, at some stranger's place...)
e|--------------------------------|
B|--------------------------------|
G|-3-1-------1--------------------|
D|-----4-4-4---4-3-3-3----3-3-3-3-|
A|---------------------1r--1-1-1--|
E|--------------------------------|
r=let ring

e|--------------------------------|
B|--------------------------------|
G|-3-1-------1--------------------|
D|-----4-4-4---4-3-3-3----3-4-4-3-|
A|---------------------1r--1-1-1--|
E|--------------------------------|
r=let ring

e|--------------------------------|
B|--------------------------------|
G|--------------------------------|X2
D|-------------------3r--3-4-3----|
A|-----3r--3-3-3-1-1----1-1-------|
E|-2-2----2-2-2-------------------|
r=let ring

Chorus 3/Outro
(Lay me down, the lie will unfurl...)
e|-------------------------------------------|
B|-----------------------------------------3-|
G|-----1-------1-----------------------------|
D|---3---3---1-------3-4------3------3-4-----|
A|-2-------2-------2--------2------2-----2---|
E|-------------------------------------------|

e|----------------------------------------------|
B|----------------------------------------------|
G|-----1-------1--------------------------------|
D|---3---3---1-------3-4------3------3-4-----8--|
A|-2-------2-------2--------2------2-----2---6r-|
E|----------------------------------------------|
r=let ring
Tap to rate this tab
# A B C D E F G H I J K L M N O P Q R S T U V W X Y Z