Song name
# A B C D E F G H I J K L M N O P Q R S T U V W X Y Z

Placebo - Teenage Angst tab

-------------------------------------------------------------------------------
			TEENAGE ANGST - Placebo
-------------------------------------------------------------------------------
Tabbed by: Jake Christensen
Email: Anarchyburger92@yahoo.com

Tuning: E-A-D-G-B-E

INTRO

e|--------------------------------------|
B|--------------------------------------|
G|--------------------------------------|
D|--------------------------------------| 2 Times
A|------13-13-13-13-------13-13-13-13---|
E|13-13-13-13-13-13-13-13-13-13-13-13---|

VERSE

e|--------------------------------------|
B|--------------------------------------|
G|--------------------------------------|
D|--------------------------------------| 2 Times
A|------13-13-13-13-------13-13-13-13---|
E|13-13-13-13-13-13-13-13-13-13-13-13---|

e|--------------------------------------|
B|--------------------------------------|
G|--------------------------------------|
D|12-12-10-10-10-10-12-12-10-6----------| 2 Times
A|--------------------------------------|
E|-----------------------------13-------|

e|--------------------------------------|
B|--------------------------------------|
G|--------------------------------------|
D|--------------------------------------|
A|------13-13-13-13-------13-13-13-13---|
E|13-13-13-13-13-13-13-13-13-13-13-13---|

REPEAT VERSE

CHORUS

e|-------------------------------------------|
B|-------------------------------------------|
G|-------------------------------------------|
D|12-12-12-12-12-12-12-10-10-10-10-10-10-10--|
A|10-10-10-10-10-10-10-8--8--8--8--8--8--8---|
E|-------------------------------------------|

e|--------------------------------------|
B|--------------------------------------|
G|--------------------------------------|
D|--------------------------------------|
A|------13-13-13-13-------13-13-13-13---|
E|13-13-13-13-13-13-13-13-13-13-13-13---|

REPEAT CHORUS ONCE

REPEAT VERSE AND CHORUS

BRIDGE

e|--------------------------------------|
B|--------------------------------------|
G|--------------------------------------|
D|--------------------------------------| 2 Times
A|15-15-13-13-13-13-15-15-13-13-13-13---|
E|--------------------------------------|

e|--------------------------------------|
B|--------------------------------------|
G|--------------------------------------|
D|12-12-10-10-10-10-12-12-10-6----------| 2 Times
A|--------------------------------------|
E|-----------------------------13-------|

e|--------------------------------------|
B|--------------------------------------|
G|--------------------------------------|
D|--------------------------------------|
A|------13-13-13-13-------13-13-13-13---|
E|13-13-13-13-13-13-13-13-13-13-13-13---|

REPEAT BRIDGE

e|-------------------------------------------|
B|-------------------------------------------|
G|-------------------------------------------|
D|12-12-12-12-12-12-12-10-10-10-10-10-10-10--|
A|10-10-10-10-10-10-10-8--8--8--8--8--8--8---|
E|-------------------------------------------|

e|--------------------------------------|
B|--------------------------------------|
G|--------------------------------------|
D|--------------------------------------|
A|------13-13-13-13-------13-13-13-13---|
E|13-13-13-13-13-13-13-13-13-13-13-13---|

Outro

e|-------------------------------------------|
B|-------------------------------------------|
G|-------------------------------------------|
D|12-12-12-12-12-12-12-10-10-10-10-10-10-10--|
A|10-10-10-10-10-10-10-8--8--8--8--8--8--8---|
E|-------------------------------------------|

e|--------------------------------------|
B|--------------------------------------|
G|--------------------------------------|
D|--------------------------------------|
A|------13-13-13-13-------13-13-13-13---|
E|13-13-13-13-13-13-13-13-13-13-13-13---|

End with:
e|-------------------------------------------|
B|-------------------------------------------|
G|-------------------------------------------|
D|12-12-12-12-12-12-12-10-10-10-10-10-10-10--|
A|10-10-10-10-10-10-10-8--8--8--8--8--8--8---|
E|-------------------------------------------|

e|--|
B|--|
G|--|
D|--|
A|13|
E|13|

===============================================================================
Tap to rate this tab
# A B C D E F G H I J K L M N O P Q R S T U V W X Y Z