Song name
# A B C D E F G H I J K L M N O P Q R S T U V W X Y Z

Placebo - For What Its Worth tab

PLACEBO - For What It's Worth
from the record Battle For The Sun (2009)

tabbed by victorlab@hotmail.fr

Intro / Verses

A#-----------------|-----------------|
A#-----------------|-----------------|
F#-----------------|-----------------|
C#-----------------|-----------------|
G#-----------------|-----------------|
D#-2-2-2-2-2-2-2-2-|-2-2-2-2-2-0-0-0-|

Chorus

A#-----------------|-----------------|
A#-----------------|-----------------|
F#-----------------|-----------------|
C#-4-4-4-4-4-4-4-4-|-4-4-4-4-4-4-4-4-|
G#-4-4-4-4-4-4-4-4-|-4-4-4-4-4-4-4-4-|
D#-2-2-2-2-2-2-2-2-|-2-2-2-2-2-2-2-2-|

A#-----------------|-----------------|
A#-----------------|-----------------|
F#-----------------|-----------------|
C#-2-2-2-2-2-2-2-2-|-2-2-2-2-2-2-2-2-|
G#-2-2-2-2-2-2-2-2-|-2-2-2-2-2-2-2-2-|
D#-0-0-0-0-0-0-0-0-|-0-0-0-0-0-0-0-0-|

That's pretty much everything, listen to the song to know when you'll have to play the 
part.
After the weird break, juste do the same as the intro/verse with palm mute.
And if you want to find the same sound, I think Stephane Olsdal use a phaser for this one.
Tap to rate this tab
# A B C D E F G H I J K L M N O P Q R S T U V W X Y Z