Song name
# A B C D E F G H I J K L M N O P Q R S T U V W X Y Z

Placebo - Where Is My Mind tab

I tried my best to make the perfect tab.So i hope u enjoy it...

----------------------------------------------------------------------------

Artist:Placebo
Song:Where is my mind
     -        -
Tuning: E-B-G-D-A-E
     -        -
Note:Chorus played with steel string acoustic guitar.
     Solo played with electro guitar.
Main Riff(Intro-Outro):

e|---------------------------------------------------------------------------------------|
B|------9----9-----9-----9----9----9-----------------------------------------------------|
G|---9----9-----9-----9----6-----6-----9-9-8-9-9-8---------------------------------------|
D|---------------------------------------------------------------------------------------|
A|---------------------------------------------------------------------------------------|
E|---------------------------------------------------------------------------------------|

Steel string acoustic intro/verse:

e|---------------------------------------------------------------------------------------|
B|---------------------------------------------------------------------------------------|
G|----------------6----6--------5----5--------6----6----6----7---------------------------|
D|--2----2--------6----6--------6----6--------7----7----7----7---------------------------|
A|--2----2--------4----4--------6----6--------7----7----7----7---------------------------|
E|--0----0----------------------4----4--------5----5----5----5---------------------------|

Single note guitar:

e|--------------------------------------------------------------------------------|
B|--------------------------------------------------------------------------------|
G|--------------------------------------------------------------------------------|
D|--------------------------------------------------------------------------------|
A|--------4-----------------------------------------------------------------------|
E|---0---------4----5-------------------------------------------------------------|
Pre Chorus (palm mute):
e|----------------------------------------------------------------------------------|
B|----------------------------------------------------------------------------------|
G|-----------------5--5--5--5----6--6--6--6----------------10-----8-8-8-8-8-8-8-8---|
D|---2--2--2--2----6--6--6--6----7--7--7--7--7--7--7--7----11-----9-9-9-9-9-9-9-9---|
A|---2--2--2--2----6--6--6--6----7--7--7--7--7--7--7--7----11-----9-9-9-9-9-9-9-9---|
E|---0--0--0--0----4--4--4--4----5--5--5--5--5--5--5--5----9------7-7-7-7-7-7-7-7---|

Solo:

e|--------------------------------------------------------------------|
B|-----------------------------------7----10----12-12-12\----15--17p--|
G|---9p----7--9h--7--------7----9-------------------------------------|
D|-------------------9h-----------------------------------------------|
A|--------------------------------------------------------------------|
E|--------------------------------------------------------------------|


Hope u like it!
Listen to the song to get the idea.Mail me for corrections-> alpha_myr@hotmail.com

Key :

| /  slide up
| \  slide down
| h  hammer-on
| p  pull-off
| ~  vibrato
| +  harmonic
| x  Mute note

*-*-*-*-*-*-*-*-*-*-*-*-*-*-*-*-*-*-*-*-*-*-*-*-*-*-*-*-*-*-*-*-*-*-*-*-*-*-*-*-*-*
Tap to rate this tab
# A B C D E F G H I J K L M N O P Q R S T U V W X Y Z