Placebo - Kings Of Medicine tab

VERSE
e|------------------------------------------------|
B|------------------------------------------------|
G|------------------------------------------------|
D|10-10-10-10-10-10-10-10-10-10-5-5-5-5-5-5-5-5-5-|
A|10-10-10-10-10-10-10-10-10-10-5-5-5-5-5-5-5-5-5-|
E|-8--8--8--8--8--8--8--8--8--8-3-3-3-3-3-3-3-3-3-|

(CONTINUED)
e|------------------------------------------------|
B|------------------------------------------------|
G|------------------------------------------------|
D|-3-3-3-3-3-3-3-3-3-3-3-3-3-3-3-3----------------|
A|-3-3-3-3-3-3-3-3-3-3-3-3-3-3-3-3----------------|
E|-1-1-1-1-1-1-1-1-1-1-1-1-1-1-1-1----------------|

PRE-CHORUS
e|------------------------------------------------|
B|--------------------------------------------x4--|
G|------------------------------------------------|
D|-2-2-2-2-2-2-2-2-2-3-3-3-3-3-3-3-3-3------------|
A|-2-2-2-2-2-2-2-2-2-3-3-3-3-3-3-3-3-3------------|
E|-0-0-0-0-0-0-0-0-0-1-1-1-1-1-1-1-1-1------------|

IS THE  SAME THE REST OF THE SONG
Tap to rate this tab
 
# A B C D E F G H I J K L M N O P Q R S T U V W X Y Z