Song name
# A B C D E F G H I J K L M N O P Q R S T U V W X Y Z

Plain White Ts - Our Time Is Now tab

A majority of this song is just the chords and not the actual
strumming or the number of times a part is played as it is
difficult to show strumming in a tab anyway. It's not a very
hard song so I'm sure all you guitarists out there can get it!


Intro/Chorus
(Some dead notes to start the song)
e-------------------|
B-------------------|
G--5----------------|
D--5--3--7--2--3--5-|
A--3--3--7--2--3--5-|
E-----1--5--0--1--3-|

Verse
e------------------------------------|
B------------------------------------|
G-(9)--(5)--(2)--(4)--(5)---(7)--9/7-|
D--7----3----0----2----3-----5-------|   All Palm muted
A------------------------------------|
E------------------------------------|

e-------------------|
B-------------------|
G--9--5--2--4--5--7-|   Still palm muted
D--7--3--0--2--3--5-|
A-------------------|
E-------------------|

Mini Bridge
e-----------------------------|
B-----------------------------|
G-----------------------------|
D-----------------------------|
A-----------------------------|
E----5-5-5-5-333--5--3----5/--|

Verse 2
e--5---5---3---3---5---7-|
B--5---6---3---5---5---8-|
G------------------------|
D------------------------|
A------------------------|
E------------------------|

Bridge
e--------|
B--------| Guitar 1
G--------|
D--3--5--|
A--3--5--|
E--1--3--|

E---------------|
B---------6-----|
G---5--7--5--12-|
D---x--x--x--x--| Guitar 2
A---3--5--3--10-|
E---------------|

Outro
e-------------|
B-------------|
G--------5----| Guitar 1
D--7--3--5--5-|
A--7--3--3--5-|
E--5--1-----3-|

e---------------|
B---------------|
G---9--5--12--7-| Guitar 2
D---x--x--x---x-|
A---7--3--10--5-|
E---------------|

End Chords
e----------|
B----------|
G----------|
D--7--2--3-|
A--7--2--3-|
E--5--0--1-|


Notes in () are ghost notes as they are hard to hear if they are even there at all and 
be played lightly if you want.


SONG ORDER

Intro
Verse 1
Chorus x2
Mini Bridge
Verse 2(With verse 1 played underneath)
Chorus x2
Bridge
Chorus x2
Outro
Ending Chords
Tap to rate this tab
# A B C D E F G H I J K L M N O P Q R S T U V W X Y Z