Song name
# A B C D E F G H I J K L M N O P Q R S T U V W X Y Z

Plain White Ts - Bruises tab

This is a new song by the Plain White T's that i loved and there were no tabs on it so i 
to make one.
It's really easy!


Guitar 1-lead
Guitar 2-rythym

Guitar 1:
The intro is something like this but im not sure.
E|---7-7-5/-7----------------------------------|
B|---7-7-5/-7----------------------------------|
G|---------------------------------------------|
D|---------------------------------------------|
A|---------------------------------------------|
E|---------------------------------------------|

Guitar 2:
Repeats throughout the whole verse
E|-----------------------------------------------|
B|-----------------------------------------------|
G|-----------------------------------------------|
D|-----------------------------------------------|
A|7---9-9---11-11--------------------------------|
E|5---7-7---9--9---------------------------------|
PM[----------------------------------------------|
Guitar 1:
Does this until about 0:10
Something whith those chords in some rythm too much sound to hear well.
E|---------------------------------------------|
B|---------------------------------------------|
G|---------------------------------------------|
D|-9--9--9---7~-----9--7~----------------------|
A|-11-11-11--9~x3---11-9~----------------------|
E|---------------------------------------------|

Guitar 1:
At about 0:26 this comes in in tune with the rythm guitar
E|-----------------------------------------------|
B|-----------------------------------------------|
G|-----------------------------------------------|
D|-7-7-7-7--9-9-9-9--11-11-11-11-11-11-11-11-----|
A|-5-5-5-5--7-7-7-7--9--9--9--9--9--9--9--9------|
E|-----------------------------------------------|
PM[----------------------------------------------|

I cant quite figure out the chorus because there is too much noise so i cant hear the 
seperately from eachother that well.

But here is the solo:

E|---------------------------------------------|
B|---------------------------------------------|
G|---------------------------------------------|
D|-7-7/5-9-9/5-7~~-5-7-9-----------------------|x3
A|---------------------------------------------|
E|---------------------------------------------|

Then it goes into something else but im working on it!
Tap to rate this tab
# A B C D E F G H I J K L M N O P Q R S T U V W X Y Z