Song name
# A B C D E F G H I J K L M N O P Q R S T U V W X Y Z

Poets Of The Fall - War tab

      "War" intro riff (also used in verses)              (Alan Wake fan)

 E ----------------------------------------------------------------------------|
 B ------0-----0---0-----------------------------------------------------------|
 G ----0-----------------0------0---0------------------------------------------|
 D --2-----2-4---4---0-4------0------------------------------------------------|
 A -------------------------3-----0--------------------------------------------|
 E ----------------------------------------------------------------------------|

 E ----------------------------------------------------------------------------|
 B ------0-----0---0----------------0------------------------------------------|
 G ----0-----------------0------0-2--------------------------------------------|
 D --2-----2-4---4---0-4------0------------------------------------------------|
 A -------------------------3--------------------------------------------------|
 E ----------------------------------------------------------------------------|

     * Let the 0's on the 2nd and 3rd strings continue to ring

    Tabbed by Rob Routon
Tap to rate this tab
# A B C D E F G H I J K L M N O P Q R S T U V W X Y Z