Song name
# A B C D E F G H I J K L M N O P Q R S T U V W X Y Z

Poets Of The Fall - Carnival Of Rust tab

This is only the intro of the song. A lot easier way to play this than other versions in UG.

-----------------------------------------------------------------------
		CARNIVAL OF RUST - Poets of the fall (intro)
-----------------------------------------------------------------------
Tabbed by: AdVisory
Tuning: Standard (Capo 3rd fret)

   Dm                     F                     Gm
e|---------0-----0p1--------------0-----0p1-----------0-----0p1-------|
B|-----3-----3-------3--------3-----3-------3------3----3-------3-----|
G|---2---2-----2-------2----2---2-----2-------2--3---3----3-------3---|
D|-0----------------------3-------------------------------------------|
A|--------------------------------------------------------------------|
E|----------------------------------------------3---------------------|
   Bb         Cadd9
e|----------------0---0-----------------------------------------------|
B|-----3------------3-------------------------------------------------|
G|--------------0-------0---------------------------------------------|
D|---3---3------------------------------------------------------------|
A|-1-------1--3-------------------------------------------------------|
E|--------------------------------------------------------------------|

=======================================================================
Tap to rate this tab
# A B C D E F G H I J K L M N O P Q R S T U V W X Y Z