Song name
# A B C D E F G H I J K L M N O P Q R S T U V W X Y Z

Poison Idea - All Right tab

-------------------------------------------------------------------------------
All Right - Poison Idea
Darby Crash Rides Again
-------------------------------------------------------------------------------
Tabbed by: axeslash
Email: holmzito@yahoo.com

Tuning: Standard

e|---------------------------------------------------------------------|
B|---------------------------------------------------------------------|
G|-8--7-7--7--------8--7-7--7--------8--7-7--7--------8--7-7--7--------|
D|-8--7-7--7--------8--7-7--7--------8--7-7--7--------8--7-7--7--------|
A|-6--5-5--5--------6--5-5--5--------6--5-5--5--------6--5-5--5--------|
E|---------------------------------------------------------------------|

e|----------------------------------------------|
B|----------------------------------------------|
G|-7--7-7--10--12-12-12------------8--10-8-10-8-|
D|-7--7-7--10--12-12-12-10--10-10--8--10-8-10-8-|
A|-5--5-5---8--10-10-10-10--10-10--6---8-6--8-6-|
E|-----------------------8---8--8---------------|

e|---------------------------------------|
B|---------------------------------------|
G|-7--7-7--5--3--3-3-----5--5-5----------|
D|-7--7-7--5--3--3-3--5--5--5-5--3-3-3-3-|
A|-5--5-5--3--1--1-1--5--3--3-3--3-3-3-3-|
E|--------------------3----------1-1-1-1-|

e|---------------------------------------------------------------------|
B|---------------------------------------------------------------------|
G|-8--7-7--7--------8--7-7--7--------8--7-7--7--------8--7-7--7--------|
D|-8--7-7--7--------8--7-7--7--------8--7-7--7--------8--7-7--7--------|
A|-6--5-5--5--------6--5-5--5--------6--5-5--5--------6--5-5--5--------|
E|---------------------------------------------------------------------|

e|----------------------------------------------------------------------|
B|----------------------------------------------------------------------|
G|-8--7-7--7--------8--7-7--7--------8--7-7--7--------8--7-7--7-7-7-7-7-|
D|-8--7-7--7--------8--7-7--7--------8--7-7--7--------8--7-7--7-7-7-7-7-|
A|-6--5-5--5--------6--5-5--5--------6--5-5--5--------6--5-5--5-5-5-5-5-|
E|----------------------------------------------------------------------|

e|----------------------------------------------|
B|----------------------------------------------|
G|-7--7-7--10--12-12-12------------8--10-8-10-8-|
D|-7--7-7--10--12-12-12-10--10-10--8--10-8-10-8-|
A|-5--5-5---8--10-10-10-10--10-10--6---8-6--8-6-|
E|-----------------------8---8--8---------------| x4

e|---------------------------------------|
B|---------------------------------------|
G|-7--7-7--5--3--3-3-----5--5-5----------|
D|-7--7-7--5--3--3-3--5--5--5-5--3-3-3-3-|
A|-5--5-5--3--1--1-1--5--3--3-3--3-3-3-3-|
E|--------------------3----------1-1-1-1-| x2

e|---------------------------------------------------------------------|
B|---------------------------------------------------------------------|
G|-8--7-7--7--------8--7-7--7--------8--7-7--7--------8--7-7--7--------|
D|-8--7-7--7--------8--7-7--7--------8--7-7--7--------8--7-7--7--------|
A|-6--5-5--5--------6--5-5--5--------6--5-5--5--------6--5-5--5--------|
E|---------------------------------------------------------------------|

e|----------------------------------------------------------------------|
B|----------------------------------------------------------------------|
G|-8--7-7--7--------8--7-7--7--------8--7-7--7--------8--7-7--7-7-7-7-7-|
D|-8--7-7--7--------8--7-7--7--------8--7-7--7--------8--7-7--7-7-7-7-7-|
A|-6--5-5--5--------6--5-5--5--------6--5-5--5--------6--5-5--5-5-5-5-5-|
E|----------------------------------------------------------------------|

e|----------------------------------------------|
B|----------------------------------------------|
G|-7--7-7--10--12-12-12------------8--10-8-10-8-|
D|-7--7-7--10--12-12-12-10--10-10--8--10-8-10-8-|
A|-5--5-5---8--10-10-10-10--10-10--6---8-6--8-6-|
E|-----------------------8---8--8---------------| x4

e|---------------------------------------|     e|--------------|
B|---------------------------------------|     B|--------------|
G|-7--7-7--5--3--3-3-----5--5-5----------|     G|-8--7-7--7----|
D|-7--7-7--5--3--3-3--5--5--5-5--3-3-3-3-|     D|-8--7-7--7----|
A|-5--5-5--3--1--1-1--5--3--3-3--3-3-3-3-|     A|-6--5-5--5----|
E|--------------------3----------1-1-1-1-| x4  E|--------------|


| /  slide up
| \  slide down
| h  hammer-on
| p  pull-off
| ~  vibrato
| +  harmonic
| x  Mute note
===============================================================================
Tap to rate this tab
# A B C D E F G H I J K L M N O P Q R S T U V W X Y Z