Song name
# A B C D E F G H I J K L M N O P Q R S T U V W X Y Z

Poison Idea - Desecration tab

-------------------------------------------------------------------------------
Desecration - Poison Idea
Dead Boy w/ Jeff Dahl
-------------------------------------------------------------------------------
Tabbed by: axeslash
Email: holmzito@yahoo.com

Tuning: Standard

e|-----------------------------------------------------------------------------|
B|-----------------------------------------------------------------------------|
G|-----------------------------------------------------------------------------|
D|-2--5--4------------2--5--7------------2--5--4------------2--5--7------------|
A|-2--5--4------------2--5--7------------2--5--4------------2--5--7------------|
E|-0--3--2------------0--3--5------------0--3--2------------0--3--5------------|

e|--------------------------------------|
B|--------------------------------------|
G|--------------------------------------|
D|-2--5--4----4-4-4----2--5--7----7-7-7-|
A|-2--5--4----4-4-4----2--5--7----7-7-7-|
E|-0--3--2----2-2-2----0--3--5----5-5-5-| x4

e|------------------------------------------------------------------|
B|------------------------------------------------------------------|
G|-4-4-4-4-4-4-4-4-4-4-4-4-4-4-4-4-5-----3--------------------------|
D|-4-4-4-4-4-4-4-4-4-4-4-4-4-4-4-4-5--5--3--3-3-3-3-3-3-3-3-3-3-3-3-|
A|-2-2-2-2-2-2-2-2-2-2-2-2-2-2-2-2-3--5--1--3-3-3-3-3-3-3-3-3-3-3-3-|
E|------------------------------------3-----1-1-1-1-1-1-1-1-1-1-1-1-| x2

e|---------------------------------|
B|---------------------------------|
G|---------------------------------|
D|-----------------2-2-2-2-2-2-2-2-|
A|-2-2-2-2-2-2-2-2-2-2-2-2-2-2-2-2-|
E|-0-0-0-0-0-0-0-0-0-0-0-0-0-0-0-0-|
  [X-X-X-X-X-X-X-X]

e|--------------------------------------|
B|--------------------------------------|
G|--------------------------------------|
D|-2--5--4----4-4-4----2--5--7----7-7-7-|
A|-2--5--4----4-4-4----2--5--7----7-7-7-|
E|-0--3--2----2-2-2----0--3--5----5-5-5-| x4

e|------------------------------------------------------------------|
B|------------------------------------------------------------------|
G|-4-4-4-4-4-4-4-4-4-4-4-4-4-4-4-4-------3--------------------------|
D|-4-4-4-4-4-4-4-4-4-4-4-4-4-4-4-4-5--3--3--3-3-3-3-3-3-3-3-3-3-3-3-|
A|-2-2-2-2-2-2-2-2-2-2-2-2-2-2-2-2-5--3--1--3-3-3-3-3-3-3-3-3-3-3-3-|
E|---------------------------------3--1-----1-1-1-1-1-1-1-1-1-1-1-1-| x2

e|-------------------------------|     e|---------------------------------|
B|-------------------------------|     B|---------------------------------|
G|-7----5---------5----3---------|     G|---------------------------------|
D|-7--5-5--5-5----5--5-3--3-3----|     D|-----------------2-2-2-2-2-2-2-2-|
A|-5--5-3--5-5----3--5-1--3-3----|     A|-2-2-2-2-2-2-2-2-2-2-2-2-2-2-2-2-|
E|----3----3-3-------3----1-1----| x3  E|-0-0-0-0-0-0-0-0-0-0-0-0-0-0-0-0-|
					 [X-X-X-X-X-X-X-X]

e|--------------------------------------------------|
B|--------------------------------------------------|
G|------7-9-9-------7-9-9-------7-9-9--7-9-9--7-5-4-|
D|-2-2--7-9-9--2-2--7-9-9--2-2--7-9-9--7-9-9--7-5-4-|
A|-2-2--5-7-7--2-2--5-7-7--2-2--5-7-7--5-7-7--5-3-2-|
E|-0-0---------0-0---------0-0----------------------| x3

e|---------------------------------|
B|---------------------------------|
G|---------------------------------|
D|-7-7-7-7-7-7-7-7-7-7-7-7-7-7-7-7-|
A|-7-7-7-7-7-7-7-7-7-7-7-7-7-7-7-7-|
E|-5-5-5-5-5-5-5-5-5-5-5-5-5-5-5-5-|

e|--------------------------------------|
B|--------------------------------------|
G|--------------------------------------|
D|-2--5--4----4-4-4----2--5--7----7-7-7-|
A|-2--5--4----4-4-4----2--5--7----7-7-7-|
E|-0--3--2----2-2-2----0--3--5----5-5-5-| x2

e|-------------------------------------------------|
B|-------------------------------------------------|
G|-------------------------------------------------|
D|-2-2-5-5-4-4-4-4-4-4-4-4-2-2-5-5-7-7-7-7-7-7-7-7-|
A|-2-2-5-5-4-4-4-4-4-4-4-4-2-2-5-5-7-7-7-7-7-7-7-7-|
E|-0-0-3-3-2-2-2-2-2-2-2-2-0-0-3-3-5-5-5-5-5-5-5-5-| x2
  [X-X-X-X-X-X-X-X-X-X-X-X-X-X-X-X-X-X-X-X-X-X-X-X]

e|-------------------------------------|
B|-------------------------------------|
G|-------------------------------------|
D|-2--5--4--------2--5--7---2--5--4----|
A|-2--5--4--------2--5--7---2--5--4----|
E|-0--3--2--------0--3--5---0--3--2----|


| /  slide up
| \  slide down
| h  hammer-on
| p  pull-off
| ~  vibrato
| +  harmonic
| x  Mute note
===============================================================================
Tap to rate this tab
# A B C D E F G H I J K L M N O P Q R S T U V W X Y Z