Guitaretab - guitar tabs
Song name
# A B C D E F G H I J K L M N O P Q R S T U V W X Y Z

Poison - Every Rose Has Its Thorn tab

From: torbjorn@ifi.uio.no (Torbj?rn Richardsen)


Every rose has its thorn
(Poison)


Fingering suggestions:

G                Cadd9
||---|---|-4-|   ||---|---|-4-|
||---|---|-3-|   ||---|---|-3-|
||---|---|---|   ||---|---|---|
||---|---|---|   ||---|-1-|---|
||---|-1-|---|   ||---|---|-2-|
||---|---|-2-|   ||---|---|---|


Intro: G Cadd9

G                                 Cadd9
We both lie silently still in the dead of the night. Although we
G                               Cadd9 
both lie close together we feel miles apart inside. Was it
G                   Cadd9                   G                  Cadd9 
something I said or something I did? Did my words not come out right? Though I
D                               C
tried not to hurt you, though I tried. But I guess that's why they say

G                  Cadd9
ev'ry rose has its thorn, just like
G                   Cadd9
ev'ry night has its dawn. Just like
G     D                C        G  
ev'ry cowboy sings his sad, sad song
                   C 
ev'ry rose has its thorn

G Cadd9 G Cadd9

G                                           Cadd9
Listen to our favourite song playing on the radio hear the
G                              Cadd9
D.J. say love's a game of easy come and easy go. But I
G              Cadd9        G              Cadd9
wonder does he know, has he ever felt like this? And I
D                                 C
know that you'd be right now if I could've let you know somehow. I guess

G                  Cadd9
ev'ry rose has its thorn, just like
G                   Cadd9
ev'ry night has its dawn. Just like
G     D                C        G  
ev'ry cowboy sings his sad, sad song
                   C 
ev'ry rose has its thorn

Em                   D             C                  G
Though it's been a while now I can still feel so much pain.
Em                   D                          C 
Like the knife thats cuts you, the wound heals, but the scar, 
            G      Cadd9  G  Cadd9 
that scar remains

G                                                    Cadd9
I know I could have saved our love that night if I'd known what to say
G                              Cadd9
Instead of making love we both made our separate ways. Now I
G                     Cadd9        G                       Cadd9
hear you've found somebody new and that I never meant that much to you. To
D                                   C                     
hear that tears me up inside and to see you cuts me like a knife. I guess

G                  Cadd9
ev'ry rose has its thorn, just like
G                   Cadd9
ev'ry night has its dawn. Just like
G     D                C        G  
ev'ry cowboy sings his sad, sad song
                   C     D  G  
ev'ry rose has its thorn



Date: Wed, 14 Jan 1998 22:12:41 PST
From: Juan Sjobohm 
Subject: Tab:Every rose has it's thorn Guitar Solo; Poison

---------------------------------------------------------------------------

Every rose has it's thorn (solo)
By Poison.
From the album "Open up and say ah", from Capitol Records.
Written by B.Dall,C.C.DeVille,B.Michaels and R.Rockett
Tabbed by Juan M. Sjobohm



Here's the guitar solos for the song
Regular tuning E,A,D,G,B,e.
First Solo- After the chorus}

~=vibrato
^=full bend
r=release

4/4 timing ( I think )

|---------------|--------------------------------|-----15^---15-|-(15)~-|
|------12---15^-|--15~~--------------13-12-------|--------------|-------|
|--14^----------|-----------12-14-12------14-14^-|-14^----------|-----0-|
|---------------|------12-14--------14-----------|--------------|-------|
|---------------|--------------------------------|--------------|-------|
|---------------|--------------------------------|--------------|-------|


Here's the main solo, right after the bridge.

|-----------|------------------------------------------|----------------|
|-------15^-|-r15----13-12--12-------------------------|----------------|
|--12--(12)-|-------------14--14-12--14-12-11--12-11---|-------9^-10^---|
|-----------|---------------------------------------14-|-14-------------|
|-----------|------------------------------------------|----------------|
|-----------|------------------------------------------|----------------|


|---------------------|----------------------|
|-----------20---20---|--20--20^-------------|
|-7^----19^---19---19-|-(19)-19^----9^---10^-|
|---------------------|----------------------|
|---------------------|----------------------|
|---------------------|----------------------|

	       Fast (32nd notes)	
|-------------h17p15--15-h19p15-h17p15---15-h19p15-h17p15---|
|-------------------17----------------17-----------------17-|
|-7^----x-16------------------------------------------------|
|-----------------------------------------------------------|
|-----------------------------------------------------------|
|-----------------------------------------------------------|


|-15~-|--(15~)--|--(15~)--|   After this, acoustic guitar continues
|-----|---------|---------|   with chords Cadd9 and G.
|-----|---------|---------|   
|-----|---------|---------|   That'all
|-----|---------|---------|
|-----|---------|---------|

Listen to the CD, to catch it better. It's also available on Poison's
"Greatest Hits 1986-1996", from Capitol Records.

Any questions, details, corrections, comments, etc., feel free to e-mail
me.

Juan M. Sjobohm

[ Tab from: http://www.guitaretab.com/p/poison/14876.html ]
Related for Every Rose Has Its Thorn tab
×
Best way to learn
"Every Rose Has Its Thorn"