Song name
# A B C D E F G H I J K L M N O P Q R S T U V W X Y Z

Pop Evil - Monster You Made tab

Tuning half step down Drop D


e-------------------------------------------------|
B-------------------------------------------------|
G-------------------------------------------------|
D---------2-0---0-------9-------9-----------------|  Repeat
A-------0---------0---7---7---7---7---------------|
D-----4-------0-----7-------6---------------------|



e---------------------------------------|
B---------------------------------------|
G---------------------------------------|
D-----0--0-0----------------------------|
A-----0----0----------------------------|
D-----0----0----------------------------|



e---------------------------------------|
B---------------------------------------|
G---------------------------------------|
D-----2-2-2-2-2-2-2-2-------------------|
A-----2-2-2-2-2-2-2-2-------------------|
D-----2-2-2-2-2-2-2-2-------------------|
   PM.......



e-------------------------------------------------|
B-------------------------------------------------|
G-----------7-----------9-------------------------|
D-----4-----7-----7-----9-------------------------| Listen for Rythm
A-----4-----5-----7-----7-------------------------|
D-----4-----------7-------------------------------|



Just a quick tab for those looking.  Will post the rest of the song soon.
Tap to rate this tab
 
# A B C D E F G H I J K L M N O P Q R S T U V W X Y Z