Song name
# A B C D E F G H I J K L M N O P Q R S T U V W X Y Z

Portal - The Kingdom tab

The Kingdom
Portal
Blood Red Tape


Tabbed by Chris J the Conquerer


Guitar 1 Tuning
1:     E          4:      D
2:     B          5:      A
3:     G          6:      D

Intro:
Clean with Reverb

let ring ------------------------------------------------|
|--------------------------------------------------------|
|--------------------------------------------------------|
|--------------------------------------------------------|
|--------------4---------------------4---------4---------|
|----3p2----------------3p2------------------------------|
|0---------0----------0---------0------- 0 --------------|


|------------------------------------------------------|
|------------------------------------------------------|
|------------------------------------------------------|
|--------------4---------------------4-----------------|
|----3p2----------------3p2----------------------------|
|0---------0----------0--------0------- 0 -------------|

Riff A:
Distortion slight Reverb
Guitar 1

|------------------------------------------------------|
|------------------------------------------------------|
|------------------------------------------------------|
|------------------------------------------------------|
|----3\2-----0h2------2----X-X----0h2-2-2--------------|
|--------0---------0-------X-X-------------------------|


|------------------------------------------------------|
|------------------------------------------------------|
|------------------------------------------------------|
|------------------------------------------------------|
|----3\2-----0h2---0--0----0-----0h2-2-2---------------|
|----------0-------0--0----0-----0h2-2-2---------------|


Riff B:
Guitar 2
Distortion w/ Pitch Phaser?

|---------------------------------------------------------------|
|---------------------------------------------------------------|
|-------------------11---11--11--11----11/14\11--11-11----------|
|-------------------x-----x---x--x------x-x-x----x--x-----------|
|-------------------9-----9--9--9------9/12\9----9--9-----------|
|---------------------------------------------------------------|

|---------------------------------------------------------------|
|---------------------------------------------------------------|
|-------------------11---11--11--11----11/16\11--11-11----------|
|-------------------x-----x---x--x------x-x-x----x--x-----------|
|-------------------9-----9--9--9------9/14\9----9--9-----------|
|---------------------------------------------------------------|


Verse Rhythm
Guitar 1
Palm-Muted 3 strum poly-rhythm


(6) D                  |---0-0-0---|         x 15


(0:44)

 |-----------------2-----|
 |--------0h2--2---2-----|

play x2

*Riff B played over the Rhythm*


Pre-Chorus

|---------------------------------------------------------------------|
|---------------------------------------------------------------------|
|---------------------------------------------------------------------|
|---------------------------------------------------------------------|
|-----0-2-2-2--2-2---2-0-0-0--0-0---0-0-0-0--0-0---0-0-0-0--0-0-------|
|-----0-2-2-2--2-2---2-0-0-0--0-0---0-0-0-0--0-0---0-0-0-0--0-0-------|


|------------------------------------------------------------------|
|------------------------------------------------------------------|
|------------------------------------------------------------------|
|------------------------------------------------------------------|
|-----0-2-2-2--2-2---2-0-0-0--0-0---0-0-0-0--0-0---0-0-0-0--0-0----|
|-----0-2-2-2--2-2---2-0-0-0--0-0---0-0-0-0--0-0---0-0-0-0--0-0----|

|---------------------------------------------------|
|---------------------------------------------------|
|---------------------------------------------------|
|---------------------------------------------------|
|-----0-2-2-2--2-2---2-0-0-0--0-0-2-2--5--5---------|
|-----0-2-2-2--2-2---2-0-0-0--0-0-2-2--5--5---------|

|---------------------------------------------------|
|---------------------------------------------------|
|---------------------------------------------------|
|---------------------------------------------------|
|-------2--2--2--2-2-2 --2-2--5-5--7---7-7-7-7-7-7--|
|-------2--2--2--2-2-2 --2-2--5-5--7---7-7-7-7-7-7--|

			 this part is very confusing, listen to the song you'll get it


Chorus
(1:38)

Riff A
+
RIff B

(1:58)
Just hit a fatty open strum and hold it while he sings "Kiiiiinnngggdoom!"


	Verse Rhythm

	Pre-Chorus

	Chorus


Last riff of chorus...
|-----------------------------------------------|
|-----------------------------------------------|
|-----------------------------------------------|
|-----------------------------------------------|
|----3\2-----0h2---0--0----0-----0h2-2-2--------|
|----------0-------0--0----0-----0h2-2-2--------|


Goes into...
Strum pattern is pretty simple, just goes back from chords on open and 4
|-------------------------------------|
|-------------------------------------|
|-------------------------------------|
|-------------------------------------|
|-----4----------------0--------------|
|-----4----------------0--------------|


Verse Rhythm
(Sometime the Rhythm 'doubles up', listen for it, its very tricky)

+

|---2-/-6-5---------|

There are lots of little background  guitar sounds during this part,
i say make up your own


Crazy Drum Solo

(4:29)
|-----------------------------------------------------|
|-----------------------------------------------------|
|------------11-------12-------11---------------------|
|-------9---------9---------9-------------------------|
|-----------------------------------------------------|
|-----------------------------------------------------|

Some harmonics here, not sure where he does them!

(5:03)
|-----------------------------------------------------|
|-----------------------------------------------------|
|-----------------------------------------------------|
|-----------------------------------------------------|
|---2---0/-9---0-0-0-0------2--0/-7----0-0-0-0--------|
|---2---0/-9---0-0-0-0------2--0/-7----0-0-0-0--------|


|-------------------------------------------------------|
|-------------------------------------------------------|
|-------------------------------------------------------|
|-------------------------------------------------------|
|-----2---0/-9---0-0-0-0-----0-0-0-0---0-0-0-0---0-0----|
|-----2---0/-9---0-0-0-0-----0-0-0-0---0-0-0-0---0-0----|

x2

|-------------------------------------------------------|
|-------------------------------------------------------|
|-------------------------------------------------------|
|-------------------------------------------------------|
|---2---0/-9---0-0-0-0------2--0/-7----0-0-0-0----------|
|---2---0/-9---0-0-0-0------2--0/-7----0-0-0-0----------|

x8


Palm Muted stuff

D(6)     |-----9-9-9-9----|

and sometimes

	|--7h9-9-9---|

plus other guitar tracks playing same thing on A and D strings
with build up to G right before "ITS OUR NAAATUUREEE"


Most confusing part of any song i've ever listened to. Definitely two guitars dubbed 
each other in studio.

(7:44)
|--------------------------------------------------------------|
|--------------------------------------------------------------|
|--------------------------------------------------------------|
|------------------------4p2-----------------------------------|
|-----3p2----0h2-----5p2-----------------3p2---------3p2-------|
|--0-------0------------------------xxx----------xxx-----------|


|--------------------------------------------------------------|
|--------------------------------------------------------------|
|--------------------------------------------------------------|
|------------------------4p2-----------------------------------|
|-----3p2----0h2-----5p2-----------------3p2---------3p2-------|
|--0-------0------------------------xxx----------xxx-----------|

(8:47)
|------------------------------------------------------|
|------------------------------------------------------|
|------------------------------------------------------|
|------------------------------------------------------|
|--2-x-2-0---0---0-0-0-0-0-0--0-0-0-0-0-0--------------|
|--2-x-2-0---0---0-0-0-0-0-0--0-0-0-0-0-0--------------|


|------------------------------------------------------|
|------------------------------------------------------|
|------------------------------------------------------|
|------------------------------------------------------|
|---2-0-2---2--2-2-2-2-2-2--2-2-2-2-2-2----------------|
|---2-0-2---2--2-2-2-2-2-2--2-2-2-2-2-2----------------|


|------------------------------------------------------|
|------------------------------------------------------|
|------------------------------------------------------|
|------------------------------------------------------|
|----2-0-5---5--5-5-5--5-5---5-5-5---5-5---------------|
|----2-0-5---5--5-5-5--5-5---5-5-5---5-5---------------|

|------------------------------------------|
|------------------------------------------|
|------------------------------------------|
|------------------------------------------|
|-----2--0-2-5-2-0-------------------------|
|-----2--0-2-5-2-0-------------------------|


|------------------------------------------------------|
|------------------------------------------------------|
|------------------------------------------------------|
|------------------------------------------------------|
|----2-0-5---5--5-5-5--5-5---5-5-5---5-5---------------|
|----2-0-5---5--5-5-5--5-5---5-5-5---5-5---------------|


|------------------------------------------------------|
|------------------------------------------------------|
|------------------------------------------------------|
|------------------------------------------------------|
|---2-0-2---2--2-2-2-2-2-2--2-2-2-2-2-2----------------|
|---2-0-2---2--2-2-2-2-2-2--2-2-2-2-2-2----------------|


|------------------------------------------------------|
|------------------------------------------------------|
|------------------------------------------------------|
|------------------------------------------------------|
|----2-0-5---5--5-5-5--5-5---5-5-5---5-5---------------|
|----2-0-5---5--5-5-5--5-5---5-5-5---5-5---------------|


|--------------------------|
|--------------------------|
|--------------------------|
|--------------------------|
|---2-0-2-0-2--------------|
|---2-0-2-0-2--------------|


Portal Owns

Comments or questions or recommendations welcome!
Email: Hellview152@gmail.com
Tap to rate this tab
# A B C D E F G H I J K L M N O P Q R S T U V W X Y Z