Song name
# A B C D E F G H I J K L M N O P Q R S T U V W X Y Z

Portal - Still Alive tab

Song "still alive"
Made by Portal Video Game
Tabs By Rasmus Laumann

This is a very easy and fun song to learn . :)
I made it by ears so i hope some of it is right . :)


--------------------------------------------------------------------------|
B--12-11-9-9-11--12-12-11-9-9-11--7-4-2--2-9-11-12-9-6-7-9-2-2-11---------|
G-------------------------------------------------------------------------|
D-------------------------------------------------------------------------|
A-------------------------------------------------------------------------|
E-------------------------------------------------------------------------|



e-------------------------------------------------------------------------|
B--12-11-9-9-11--12-12-11-9-9-11--7-4-2--2-9-11-12-9-6-7-9-2-7-9-10-9-7-5-|
G-------------------------------------------------------------------------|
D-------------------------------------------------------------------------|
A-------------------------------------------------------------------------|
E-------------------------------------------------------------------------|



e-------------------------------------------------------------------------|
B--2-3-5-10-9-7-7-5-7-5-5-5--2-3-5-10-12-10-9-7-7-9-10-10-----------------|
G-------------------------------------------------------------------------|
D-------------------------------------------------------------------------|
A-------------------------------------------------------------------------|
E-------------------------------------------------------------------------|



e-------------------------------------------------------------------------|
B--12-14-15-15-14-12--10-12-14-14-12-10--7-5-7-10-10-9-11-11-11-----------|
G-------------------------------------------------------------------------|
D-------------------------------------------------------------------------|
A-------------------------------------------------------------------------|
E-------------------------------------------------------------------------|



e-------------------------------------------------------------------------|
B--14-14-16-14-11-7-9-11-11-----------------------------------------------|
G-------------------------------------------------------------------------|
D-------------------------------------------------------------------------|
A-------------------------------------------------------------------------|
E-------------------------------------------------------------------------|

Respawns Koen-klaus@sol.dk
Tap to rate this tab
 
# A B C D E F G H I J K L M N O P Q R S T U V W X Y Z