Portal - Want You Gone chords

Highlighted       Show chord diagrams
Portal 2 - Want You Gone
Written by Jonathan Coulton

Riff:
  A         A(b5)    D      Dm       
e|-----------------------------------------|
B|-----------------------------------------|
G|-----------------------------------------|
D|----2---2---1--------0---0---3-----------|
A|--0---0---0--------0---0---0-------------|
E|-----------------------------------------|

  A         A(b5)    D      E
e|-----------------------------------------|
B|-----------------------------------------|
G|-----------------------------------------|
D|----2---2---1--------0---0---------------|
A|--0---0---0--------0---0---------------2-|
E|---------------------------0-0-0-0-2-4---|

A(b5) Chord:
e|-----|
B|--2--|
G|--2--|
D|--1--|
A|--0--|
E|-----|

Intro:
A - A(b5) - D - Dm

Verse 1:
A            A(b5)       
Well here we are again,
D           Dm
It's always such a pleasure,
A        A(b5)             D       E
Remember when you tried to kill me twice?
A         A(b5)     
Oh, how we laughed and laughed,
D        Dm
Except I wasn't laughing,
A         A(b5)         D         C#
Under the circumstances I've been shockingly nice.

Chorus 1:
F#  G#m       A#m     B
You want your freedom take it,
F#  G#m             A#m   B
That's what I'm counting on,
F# G#m    A#m      B
I used to want you dead but,
Bm         E        A
Now I only want you gone.

Riff: 
A - A(b5) - D - Dm

Verse 2:
She was a lot like you,
(Maybe not quite as heavy),
Now little Caroline is in here too.
One day they woke me up,
So I could live forever,
It's such a shame the same will never happen to you.

Chorus 2:
You've got your short, sad life left,
That's what I'm counting on,
I'll let you get right to it,
Now I only want you gone.

Riff: 
A - A(b5) - D - Dm

Verse 3: 
Goodbye, my only friend,
Oh, did you think I meant you?
That would be funny if it weren't so sad.
Well you have been replaced,
I don't need anyone now,
When I delete you, maybe I'll stop feeling so bad...

Chorus 3:
Go make some new disaster,
That's what I'm counting on,
You're someone else's problem,
Bm         E        A     F#m
Now I only want you gone
D          E        A     F#m
Now I only want you gone
D          E        A   
Now I only want you gone...
Tap to rate this tab
 
# A B C D E F G H I J K L M N O P Q R S T U V W X Y Z