Portal - Still Alive tab

This is an easier version of this song. I also changed some of the tabs to make it
sound better. And I also added some stuff that wasn't added before.

Acoustic Guitar

[VERSE PART 1]
e|-----2-------2-------2-------2-------|
B|---3---3---3---3---3---3---3---3-----|
G|-------------------------------------| x2
D|-------------------------------------|
A|-0-------2-------0-------2-----------|
E|-------------------------------------|

[VERSE PART 2]                                      (((Only after 1st)))
e|-----3-------3-------3-------3---          ( ----2-------2-------2-------2--- )
B|---3---3---3---3---3---3---3---3-          ( --3---3---3---3---3---3---3---3- )
G|---------------------------------          ( -------------------------------- )
D|---------------------------------          ( -------------------------------- )
A|-2-------2-------0-------0-------          ( 0-------2-------0-------2------- )
E|---------------------------------          ( -------------------------------- )

[VERSE ENDING]
e|-------5-|
B|---3-6---|
G|-3-------|
D|---------|
A|---------|
E|---------|


[PRECHORUS]
     V - Very quiet A (if even there) V
e|---5-------3--------------------|---5-------3--------------------|
B|-6---6---5---5---3-4-5-6-7---3--|-6---6---5---5---3-4-5-6-7---3--|
G|--------------------------------|--------------------------------|
D|--------------------------------|--------------------------------|
A|--------------------------------|--------------------------------|
E|--------------------------------|--------------------------------|


[CHORUS]
e|---3---3---3---3---5---5---5---5---3---3---3---3-|
B|-3---3---5---5---6---6---3---3---3---3---2---2---|
G|-------------------------------------------------|
D|-------------------------------------------------|
A|-------------------------------------------------|
E|-------------------------------------------------|



ACOUSTIC:			ELECTRIC:
Main Verse x2
Main Verse Ending
Prechorus
Chorus
Main Verse x2
Main Verse Ending
Prechorus			Prechorus
Chorus				Chorus
Main Verse x2			Verse
Main Verse Ending
Prechorus			Prechorus
Chorus				Chorus
Verse Part 1			Verse

__________________________________________________________________


Electric Guitar

[PRECHORUS]
e|-------------------------------|
B|-------------------------------|
G|-------------------------------|
D|---------5--3---------5--3-----|
A|-xxxx-3--3--1--3---3--3--1--3--|
E|-xxxx-1--------1---1--------1--|


[CHORUS]                                          (([After Chorus 2]))
e|----------------------------                    ((e---------------))
B|----------------------------                    ((B---------------))
G|----------5-4-----------6---                    ((G---5-5-4-------))
D|------5-5-3-2-7-5----6--4----                   ((D---3-3-2-4-----))
A|--5-5-3-3-----5-3-5--4-------                   ((A---------2-----))
E|--3-3-------------3----------                   ((E---------------))


[VERSE]
e|------------------------------------|
B|------------------------------------|
G|-7-6-----------------------7-6------|
D|-5-4-9-7------------7------5-4-9-7--|
A|-----7-5------9-7-9-5----------7-5--|
E|--------------7-5-7-----------------|




ACOUSTIC:			ELECTRIC:
Main Verse x2
Main Verse Ending
Prechorus
Chorus
Main Verse x2
Main Verse Ending
Prechorus			Prechorus
Chorus				Chorus
Main Verse x2			Verse
Main Verse Ending
Prechorus			Prechorus
Chorus				Chorus
Verse Part 1			Verse
Tap to rate this tab
 
# A B C D E F G H I J K L M N O P Q R S T U V W X Y Z