Song name
# A B C D E F G H I J K L M N O P Q R S T U V W X Y Z

Portishead - Over tab

band:Portis Head
Album:Portis Head
Song:over

b:bend 1/2step      STANDARD TUNNING
B:bend full
~:vibrate
/;slide up
\:slide down
p:pull off

This is my first tab sounds right to me.if you have any corrections or comments send 
to afterforgiven13@yahoo.com.


this first part is played throughout the whole song.listen to the song to get the beat.

e[----------------------------------------------------]
B[----------------------------------------------------]
G[----------------------------------------------------]
D[----------------------------------------------------]
A[--4--6-6-6-6-6-6-6-6-6\5-5-5------------------------]
E[--4-------------------------------------------------]


The solo was kinda of difficult it took me so long.i tried my best just try it if it 
sound right send me corrections.

e[----------------------------------------------------------]
B[----------------------------------------------------------]
G[----------------------------------------------------------]
D[---------------------5/6-6-3------------------------------]
A[-b5/7~~~8~~\4-5-4~~~---------B5/6~~~-4/6~~~--4/6-p7-6-4---]
E[----------------------------------------------------------]


e[---------------------------------------------------------]
B[---------------------------------------------------------]
G[---------------------------------------------------------]
D[---------------------5/6-6-3-----------------------------]
A[-b5/7~~~8~~\4-5-4~~~---------B5/9~-3/5~~\3~--------------]
E[---------------------------------------------------------]

thats it should be good. have fun with it. its a pretty kool song later.
Tap to rate this tab
 
# A B C D E F G H I J K L M N O P Q R S T U V W X Y Z