Song name
# A B C D E F G H I J K L M N O P Q R S T U V W X Y Z

Portugal The Man - The Sun tab

Bass intro or close to it:
e|---------------------------------------------------------------------------|
B|---------------------------------------------------------------------------|
G|---------------------------------------------------------------------------|
D|-------3-2-----------------------------------------------------------------|
A|-----------5-3-5-3---------------------------------------------------------|
E|--/5~--------------5-3-3/5-------------------------------------------------|

Repeat where necessary, you'll hear it throughout in the chorus:
e|---------------------------------------------------------------------------|
B|---------------------------------------------------------------------------|
G|--12-12-12-12b--10-10v-----------------------------------------------------|
D|---------------------------------------------------------------------------|
A|---------------------------------------------------------------------------|
E|---------------------------------------------------------------------------|

Part comes in around 1:00 and 2:30, hard to hear for me but I think it's close:
e|---------------------------------------------------------------------------|
B|---------------------------------------------------------------------------|
G|--10-9-7----7--------------------------------------------------------------|
D|---------10---10-7----7----------------------------------------------------|
A|-------------------10---10-8-7-8-7-5-3--/10-10-10-10b-10-8-----------------|
E|-----------------------------------------------------------10--------------|
                                         <|     play twice     |>
Comes in at 1:45:
e|---------------------------------------------------------------------------|
B|---------------------------------------------------------------------------|
G|--------10h12-10-----------10-----------10h12-10----------10---------------|
D|--10h12----------12-10-12-----12--10h12----------12-10-12----12------------|
A|---------------------------------------------------------------------------|
E|---------------------------------------------------------------------------|
Tap to rate this tab
 
# A B C D E F G H I J K L M N O P Q R S T U V W X Y Z