Song name
# A B C D E F G H I J K L M N O P Q R S T U V W X Y Z

Portugal The Man - Waves tab

-------------------------------------------------------------------------------
			     Waves - Portugal. The Man
-------------------------------------------------------------------------------
Tabbed by: Tihacker

Tuning: Standard

e|---------------------------------------------------------------------------|
B|--10b------------------8---8/10---10b--------------------------------------|
G|--------9br------7h9-----9--------------9br--------------------------------|
D|-------------------------------------------------2~------------------------|
A|---------------------------------------------------------------------------|
E|---------------------------------------------------------------------------|

e|--------------------0~-----------------------------------------------------|
B|--------------------0~-----------------------------------------------------|
G|--------------------0~-----------------------------------------------------|
D|--------------------2~-----------------------------------------------------|
A|----0-0/2-0---0-----2~-----------------------------------------------------|
E|--3---------3---0----------------------------------------------------------|

The base chords are: Em D Am  C Am Em


************************************

| /   slide up
| \   slide down
| h   hammer-on
| p   pull-off
| ~   vibrato
| +   harmonic
| x   Mute note
| b   Bend
| pb  Pre-bend
| br  Bend release
| pbr Pre-bend release
| brb Bend release bend

************************************
Tap to rate this tab
# A B C D E F G H I J K L M N O P Q R S T U V W X Y Z