Song name
# A B C D E F G H I J K L M N O P Q R S T U V W X Y Z

Presidents Of The Usa - Video Killed The Radio Star tab

Song:Video Killed The Radio Star
Artist: Presidents Of The United States Of America
Original artist: The Buggles
Great little cover here from the wedding singer soundtrack.
Basically pretty easy to play, just weired chord changes
Have fun with it
TRISTAN   contact me if you have any queries probs thelivingendfan@homtail.com

NOTES:  DROP D TUNING
             
         E
	 B
         G
         D
         A
         D (low)
INTRO:

E----------------------------
B----------------------------           
G----6-----------------------        palm mute all strings
D----6-----------------------    
A----4-----------------------
D----------------------------

VERSE:     PART ONE
i heard you on my wireless......
E------------------------------------
B------------------------------------
G---6-6------------------------------      X2
D---6-6-----1-1-----4-4------6-6-----
A---4-4-----1-1-----4-4------6-6-----
D-----------1-1-----4-4------6-6-----

           PART TWO

If i was young and didn't stop.....
E------------------------------------
B------------------------------------
G------------------------------------      X2
D---6-6------------------------------
A---3-3-----4-4-------6-6------------
D-----------4-4-------6-6------------

they took the credit for your second.....
PART ONE AGAIN X2

and now i understand the supernova scene...
PART TWO AGAIN X3

CHORUS: video killed the radio star.....
E------------------------------------
B------------------------------------
G------------------------------------
D---6666---4444---6666---4444--------
A---4444---4444---4444---4444--------
D----------4444----------4444--------

In my mind and in my car......
E------------------------------------
B------------------------------------
G------------------------------------      
D---6-6---6-6----3-3-----------------X2
A---4-4---3-3----1-1-----------------
D------------------------------------

Oh....Oh..OH 
E------------------------------------
B------------------------------------
G------------------------------------
D------6-6---8-----6-6---8-----------
A------6-6---8-----6-6---8-----------
D------6-6---8-----6-6---8-----------

back to verse 
PART ONE

then 
PART TWO

Chorus
the little oh oh oh bit
Solo (on its way)

Chorus
PART B X2

over synthesizer the chords are
E------------------------------------
B------------------------------------
G--3---6---3---6---------------------    X2
D--3---6---3---6---------------------
A--1---4---1---4---------------------
D------------------------------------
Churus till end then 
E------------------------------------
B------------------------------------
G------------------------------------
D---66---88---44---88---4--6 let ring
A---66---88---44---88---4--6-let ring
D---66---88---44---88---4--6-let ring
Tap to rate this tab
# A B C D E F G H I J K L M N O P Q R S T U V W X Y Z