Song name
# A B C D E F G H I J K L M N O P Q R S T U V W X Y Z

Primal Scream - Jailbird tab

----------------------------------------------------------------------------
			     JAILBIRD - Primal Scream
----------------------------------------------------------------------------
Tabbed by:chris w
Email:

Tuning:standard

e|------------------------------------------------------------|
B|------------------------------------------------------------|
G|------------------------------------------------------------|
D|------------------------------------------------------------|  x3
A|--10/12--x-12-x-9-10-x-x-10-x-10-7/9--x-9-x-7--5-----12--10-|
E|-------------------------------------------------7-5--------|

e|--------------------------------------------------------------------|
B|--------------------------------------------------------------------|
G|--------------------------------------------------------------------|
D|-----------------------------------------------------------10-12-14-|
A|--10/12--x-12-x-9-10-x-x-10-x-10-7/9--x-9-x-7--5-----10-12----------|
E|-------------------------------------------------7-5----------------|


| /  slide up
| \  slide down
| x  Mute note
============================================================================
Tap to rate this tab
# A B C D E F G H I J K L M N O P Q R S T U V W X Y Z