Song name
# A B C D E F G H I J K L M N O P Q R S T U V W X Y Z

Primus - Over The Falls tab

Help us improve GuitareTab! Take a short survey!
Standard Tuning
   3/4
    Gtr I
                   |-3-|                              4x
||------------|-------------|-----------|-----------------||
||o-----------|-------------|-----------|----------------o||
||-----0------|-------------|----0------|-----------------||
||-------0h2--|-------------|------0h2--|-----------------||
||o-----------|----4h5p4----|-----------|----------------o||
||--0---------|-0--------5--|-0---------|-3h5--3h5--3h5---||


   3/4
    PM----------------------------------------------|
||-------------|------------|------------|-------------||
||o------------|------------|------------|------------o||
||-------------|------------|------------|-------------||
||-----2-2-2-2-|----2-2-2-2-|----2-2-2-2-|----2-2-2-2--||
||o------------|------------|------------|------------o||
||--0----------|-3----------|-0----------|-3-----------||

    PM----------------------------------------------|
||-------------|------------|------------|-------------||
||o------------|------------|------------|------------o||
||-------------|------------|------------|-------------||
||-----2-2-2-2-|----2-2-2-2-|----2-2-2-2-|----2-2-2-2--||
||o------------|------------|------------|------------o||
||--0----------|-3----------|-0----------|-3-----------||

  PM------------------------------------------------|
|------------|------------||-------------|--------------||
|------------|------------||o------------|-------------o||
|------------|------------||-------------|--------------||
|----2-2-2-2-|----5-5-5-5-||-----2-2-2-2-|----2-2-2-2---||
|------------|------------||o------------|-------------o||
|-5----------|-8----------||--0----------|-0------------||

    PM----------------------------------------------|
||-------------|------------|------------|-------------||
||o------------|------------|------------|------------o||
||-------------|------------|------------|-------------||
||-----2-2-2-2-|----2-2-2-2-|----2-2-2-2-|----2-2-2-2--||
||o------------|------------|------------|------------o||
||--0----------|-3----------|-0----------|-3-----------||

    PM----------------------------------------------|
||-------------|------------|------------|-------------||
||o------------|------------|------------|------------o||
||-------------|------------|------------|-------------||
||-----2-2-2-2-|----5-5-5-5-|----2-2-2-2-|----2-2-2-2--||
||o------------|------------|------------|------------o||
||--5----------|-8----------|-0----------|-0-----------||

  PM-----------------------|
|------------|----------------|------------|-------------|
|------------|----------------|------------|-------------|
|------------|----------------|------------|-------------|
|----7-7-7-7-|----10-10-10-10-|----9-9-9-9-|----8-8-8-8--|
|------------|----------------|------------|-------------|
|-5----------|-8--------------|-7----------|-6-----------|

  PM-------|
|------------|----------|------|
|------------|----------|------|
|------------|----------|------|
|----7-7-7-7-|----------|------|
|------------|----------|------|
|-5----------|-4--3---2-|-0----|
Related for Over The Falls tab