Song name
# A B C D E F G H I J K L M N O P Q R S T U V W X Y Z

Prince - Still Waiting tab

Still Waiting for acoustic guitar.


Intro - add any slides/hammers that sound good

e|-----------------------------------------------------------------------------|
B|---7-8-10---8-7-7-------5-7-5------------------------------------------------|
G|-------------------7---4-------7------5-4----7-------------------------------|
D|--------------------------------------------5--------------------------------|
A|-----------------------------------------------------------------------------|
E|-----------------------------------------------------------------------------|

Verse

(All my friends tell me)

(x8...............................|...............(8th Time)

Ch/---G------C------D7----------------G--------C------D#----D

e|--3-3-3---0-0-----2.....|--------|--3-3-3----3-3-----4-----5------------------------|
B|--3-3-3---1-1-----1.....|--------|--3-3-3--- 5-5-----6-----7------------------------|
G|--4-4-4---0-0-----2.....|--------|--4-4-4----5-5-----6-----7------------------------|
D|--5-5-5---2-2-----0.....|------- |--5-5-5----5-5-----6-----7------------------------|
A|----------3-3----------|--------|------------3-3-----4-----5------------------------|
E|-----------------------|---------|--------------------------------------------------|


Chorus

(Still Waiti.....that Love)

(x4)---------------------|-|-------------(4th Time)-------------a quick breakdown ad lib

Ch/-G---B--C---D7------------------------F--------C---------.|--B-A-/-G

e|---2--2---0---2-------|----------- |--1-1-1---8--8--8------.|--2-0-0-2--|
B|---0- 4---1---1-------| -----------|--1-1-1---8--8--8------.|--4-2-0-0--|
G|---0--4---0-- 2-------| -----------|--2-2-2---9--9--9------.|--4-2-0-0--|
D|---0--4---2---0-------| ----------- |-3-3-3--10-10-10-----.|---4-2-0-0--|
A|---2--2---3---x-------| ----------- |------------------------|-2-0-0-2--|
E|---3------x---x-------| -----------|------------------------.|-------3--|

Solo same as before
e|-----------------------------------------------------------------------------|
B|---7-8-10---8-7-7-------5-7-5------------------------------------------------|
G|-------------------7---4-------7------5-4----7-------------------------------|
D|--------------------------------------------5--------------------------------|
A|-----------------------------------------------------------------------------|
E|-----------------------------------------------------------------------------|

back to the Verse...


Peace and B Wild O(+> Yosh
Tap to rate this tab
# A B C D E F G H I J K L M N O P Q R S T U V W X Y Z