Song name
# A B C D E F G H I J K L M N O P Q R S T U V W X Y Z

Prodigy - Razor tab

Prodigy- Razor
Taken off " Their Law The Singles 1990-2005''
Tabbed by: Matt Williams
Email: taff733@aol.com

Tuning: Standard

Not all but i got some

Pre-chorus "razor sharp is comin back''

e|---------------------------------------------------------------------------|
B|---------------------------------------------------------------------------|
G|---------------------------------------------------------------------------|
D|---------------------------------------------------------------------------|
A|-2--2---3-5-77777----------------------------------------------------------|
E|-0--0---1-3-55555----------------------------------------------------------|

repeat x4

Chorus " Boyyyyyyyyyyyyyyy, you'll do what you're told''

e|----------------------------------------------------------------------------|
B|----------------------------------------------------------------------------|
G|----------------------------------------------------------------------------|
D|----------------------------------------------------------------------------|
A|-2--------5----------2--------5---------------------------------------------|
E|-0--------3----------0--------3---------------------------------------------|

repeat as many times as necessary

while the solo is playing this is the rhythm

e|---------------------------------------------------------------------------|
B|---------------------------------------------------------------------------|
G|---------------------------------------------------------------------------|
D|---------------------------------------------------------------------------|
A|-5--5---5--5---2--2---2--2-------------------------------------------------|
E|-3--3---3--3---0--0---0--0-------------------------------------------------|

do as much as needed

plenty of room for improvemnet but you get the basics

any additions PLEASE email me! Thanks
Tap to rate this tab
# A B C D E F G H I J K L M N O P Q R S T U V W X Y Z