Song name
# A B C D E F G H I J K L M N O P Q R S T U V W X Y Z

Project 86 - The Butcher tab

Title: The Butcher
Artist: Project 86
Label: Tooth & Nail
Tabgbed by: tsuiining


QUICK NOTES FOR THIS TAB

This is just the intro to "The Butcher" by Project 86.

p=pull off
.=palm mute

The numbers underneath the tab is the beat (about 115bpm) to help you with playing the intro.


E|---------------------------------|
B|---------------------------------|
G|---------------------------------|
D|---------------------------------|
A|0---0---1p0-0-0-1p0-0-1--p0-0-0--|
D|0---0---1p0-0-0-1p0-0-1--p0-0-0--|
  1 + 2 + 3 + 4 + 1 + 2 + 3 + 4 +
              ...     .       ...

E|---------------------------------|
B|---------------------------------|
G|---------------------------------|
D|---------------------------------|
A|0---0---1p0-0-0-1p0-0-1--p0------|
D|0---0---1p0-0-0-1p0-0-1--p0-6p3--|
  1 + 2 + 3 + 4 + 1 + 2 + 3 + 4 +
              ...     .       




Hope it turned out as well as I think it is...
Tap to rate this tab
# A B C D E F G H I J K L M N O P Q R S T U V W X Y Z