Song name
# A B C D E F G H I J K L M N O P Q R S T U V W X Y Z

Protest The Hero - Mist tab

-------------------------------------------------------------------------------
                             MIST OUTRO - Protest the Hero
-------------------------------------------------------------------------------
Tabbed by: wheretheressmoke
E-mail: kyclarke@gmail.com

I saw that no one had tabbed this little outro yet so here's how I play it.

Tuning: Standard (Note: PTH plays this a half-step down on the record, but I have tabbed 
it here for standard tuning to make your life easier. If you want to play it the legit 
way just tune down and raise everything a half-step.)

Fades in strumming an EMaj2
e|-/6-------------------------------------------------------------------------|
B|-/6-------------------------------------------------------------------------|
G|-/6-------------------------------------------------------------------------|
D|-/8-------------------------------------------------------------------------|
A|-/8-------------------------------------------------------------------------|
E|-/6-------------------------------------------------------------------------|

Main chord progression:
   Bbmin            DbMaj2           EbMaj2           Ebmin7
e|-1-11-1-1-11-1-11-4-44-4-4-44-4-44-6-66-6-6-66-6-66-6-66-6-6-66-6-66-------|
B|-2-22-2-2-22-2-22-4-44-4-4-44-4-44-6-66-6-6-66-6-66-6-66-6-6-66-6-66-------|
G|-3-33-3-3-33-3-33-6-66-6-6-66-6-66-8-88-8-8-88-8-88-6-66-6-6-66-6-66-------|
D|-3-33-3-3-33-3-33-6-66-6-6-66-6-66-8-88-8-8-88-8-88-8-88-8-8-88-8-88-------|
A|-1-11-1-1-11-1-11-4-44-4-4-44-4-44-6-66-6-6-66-6-66-6-66-6-6-66-6-66-------|
E|---------------------------------------------------------------------------|

Melody riff:
e|------------------------13-----------------------4~------------------------|
B|13h14-11-13-14-11----11----11--------------------4~------------------------|
G|------------------13----------13-15----15-13-15--6~------------------------|
D|------------------------------------15-----------6~------------------------|
A|-------------------------------------------------4~------------------------|
E|---------------------------------------------------------------------------|

e|------------------------13-----------------------6~---6~-------------------|
B|13h14-11-13-14-11----11----11--------------------6~---6~-------------------|
G|------------------13----------13-15----15-13-15--8~---6~-------------------|
D|------------------------------------15-----------8~---8~-------------------|
A|-------------------------------------------------6~---6~-------------------|
E|---------------------------------------------------------------------------|

Same riff one octave down:
e|---------------------------------------------------------------------------|
B|---------------------------------------------------------------------------|
G|5h6---5-6-------10---------------------------------------------------------|
D|----8-----8-6/8---8-6h8---8-6-8-------*cute little fill*-------------------|
A|------------------------8--------------------------------------------------|
E|---------------------------------------------------------------------------|

Ending:
e|---------------------------------------------------------------------------|
B|---------------------------------------------------------------------------|
G|5h6---5-6-------10---------------------------------------------------------|
D|----8-----8-6/8---8-6h8---8---8---8---8---8---6~---------------------------|
A|------------------------8---6---4------------------------------------------|
E|------------------------------------8---6---4~-----------------------------|

And there you have it. Pretty simple and lots of fun to play. Enjoy!


************************************

| /   slide up
| \   slide down
| h   hammer-on
| p   pull-off
| ~   vibrato
| +   harmonic
| x   Mute note
| b   Bend
| pb  Pre-bend
| br  Bend release
| pbr Pre-bend release
| brb Bend release bend

************************************
Tap to rate this tab
# A B C D E F G H I J K L M N O P Q R S T U V W X Y Z