Song name
# A B C D E F G H I J K L M N O P Q R S T U V W X Y Z

Puggy - How I Needed You tab

Band : puggy
Song : How I Needed You
Album : Something You Might Like
Year : 2010

Chords Used :
G        : 320002
F#7      : 2x1210
Em       : 022000
Bm7      : x24232
C        : x32010
D7       : xx0212
D#7      : xx1212
F#m7(b5) : xx4555




    G                  F#7                Em                 Bm7
e|------------------|------------------|------------------|------------------|
B|--------3---------|--------1---------|--------8---------|--------7---------|
G|------------4-----|------------2-----|------------9-----|------------7-----|
D|------5--------5--|------1--------1--|------9--------9--|------7--------7--|
A|------------------|------------------|--7---------------|------------------|
E|--3---------------|--2---------------|------------------|--7---------------|
    Safe              from them all                    Those e - vil little

    C                  D7                 G                  D7         
e|------------------|------------------|------------------|------------------|
B|--------5---------|--------3---------|--------3---------|------------------|
G|------------5-----|------------5-----|------------4-----|------------------|
D|------5--------5--|------4--------4--|------5--------5--|--4---2---0-------|
A|--3---------------|--5---------------|------------------|--------------3---|
E|------------------|------------------|--3---------------|------------------|
    mo -ther fuckers  at      my     door

    G                  F#7                Em                 Bm7
e|------------------|------------------|------------------|------------------|
B|--------3---------|--------1---------|--------8---------|--------7---------|
G|------------4-----|------------2-----|------------9-----|------------7-----|
D|------5--------5--|------1--------1--|------9--------9--|------7--------7--|
A|------------------|------------------|--7---------------|------------------|
E|--3---------------|--2---------------|------------------|--7---------------|
    Yeah    well       I’ve    kept       score       And    I believe   they 

    C                  D7                 G                  D7         
e|------------------|------------------|------------------|------------------|
B|--------5---------|--------3---------|--------3---------|------------------|
G|------------5-----|------------5-----|------------4-----|------------------|
D|------5--------5--|------4--------4--|------5--------5--|--4---2---0-------|
A|--3---------------|--5---------------|------------------|--------------3---|
E|------------------|------------------|--3---------------|------------------|
    owe me more Than   life    is         short


    G                  F#7                Em                 Bm7
e|------------------|------------------|------------------|------------------|
B|--------3---------|--------1---------|--------8---------|--------7---------|
G|------------4-----|------------2-----|------------9-----|------------7-----|
D|------5--------5--|------1--------1--|------9--------9--|------7--------7--|
A|------------------|------------------|--7---------------|------------------|
E|--3---------------|--2---------------|------------------|--7---------------|
    Do   you     re -  member when                     no  - body  knew  me

    C                  D7                 G                  D7         
e|------------------|------------------|------------------|------------------|
B|--------5---------|--------3---------|--------3---------|------------------|
G|------------5-----|------------5-----|------------4-----|------------------|
D|------5--------5--|------4--------4--|------5--------5--|--4---2---0-------|
A|--3---------------|--5---------------|------------------|--------------3---|
E|------------------|------------------|--3---------------|------------------|
    Man was life so    simple   then

    G                  F#7                Em                 Bm7
e|------------------|------------------|------------------|------------------|
B|--------3---------|--------1---------|--------8---------|--------7---------|
G|------------4-----|------------2-----|------------9-----|------------7-----|
D|------5--------5--|------1--------1--|------9--------9--|------7--------7--|
A|------------------|------------------|--7---------------|------------------|
E|--3---------------|--2---------------|------------------|--7---------------|
    Ouh     But you   knew  my   name                 and    Lords knows it will

    C                  D7                 G                  G         
e|------------------|------------------|------------------|------------------|
B|--------5---------|--------3---------|--------3---------|------------------|
G|------------5-----|------------5-----|------------4-----|------------------|
D|------5--------5--|------4--------4--|------5--------5--|------------------|
A|--3---------------|--5---------------|------------------|-------------2----|
E|------------------|------------------|--3---------------|--3---------------|
    Never sound the    same       again
  




    C                  D#7                Em                 Bm7
e|------------------|------------------|------------------|------------------|
B|------------5-----|------------7-----|------------8-----|------------7-----|
G|--------5------5--|--------5------5--|--------9------9--|--------7------7--|
D|------5-----------|------7-----------|------9-----------|------7-----------|
A|--3---------------|--6---------------|--7---------------|------------------|
E|------------------|------------------|------------------|--7---------------|
             I   will   stay     with you          I  will  stay   with   you

    C                  D#7                Em                 F#m7(b5)
e|------------------|------------------|------------------|------------------|
B|------------5-----|------------7-----|------------8-----|-----------10-----|
G|--------5------5--|--------5------5--|--------9------9--|--------9------9--|
D|------5-----------|------7-----------|------9-----------|-----10-----------|
A|--3---------------|--6---------------|--7---------------|--9---------------|
E|------------------|------------------|------------------|------------------|
            I   will   stay    with  you

    C                  D#7                Em                 Bm7
e|------------------|------------------|------------------|------------------|
B|------------5-----|------------7-----|------------8-----|------------7-----|
G|--------5------5--|--------5------5--|--------9------9--|--------7------7--|
D|------5-----------|------7-----------|------9-----------|------7-----------|
A|--3---------------|--6---------------|--7---------------|------------------|
E|------------------|------------------|------------------|--7---------------|
              How  I   need  - ed   you            How  I    need  -   ed

    C                  D7                G                   G
e|------------------|------------------|------------------|------------------|
B|------------5-----|------------3-----|------------------|--5---------------|
G|--------5------5--|--------5------5--|------------------|--5---------------|
D|------5-----------|------4-----------|------------------|--5---------------|
A|--3---------------|--5---------------|------------------|------------------|
E|------------------|------------------|--3---------------|--3---------------|
     you     How  I    need  -  ed  you



    G                                     D
e|------------------|------------------|------------------|------------------|
B|------------------|------------------|------------------|------------------|
G|------------------|------------------|------------------|------------------|
D|--5---5---5---5---|--5---5---5---5---|--7---7---7---7---|--7---7---7---7---|
A|--3---3---3---3---|--3---3---3---3---|--5---5---5---5---|--5---5---5---5---|
E|------------------|------------------|------------------|------------------|
                                                             Need - ed   you

    G                                     D
e|------------------|------------------|------------------|------------------|
B|------------------|------------------|------------------|------------------|
G|------------------|------------------|------------------|------------------|
D|--5---5---5---5---|--5---5---5---5---|--7---7---7---7---|--7---7---7---7---|
A|--3---3---3---3---|--3---3---3---3---|--5---5---5---5---|--5---5---5---5---|
E|------------------|------------------|------------------|------------------|
                                                             Need - ed   you

    G                  G/B                G                  D
e|------------------|------------------|------------------|------------------|
B|------------------|------------------|------------------|------------------|
G|------------------|------------------|------------------|------------------|
D|--5---5---5---5---|--5---5---5---5---|--5---5---5---5---|--7---7---7---7---|
A|--3---3---3---3---|--2---2---2---2---|--3---3---3---3---|--5---5---5---5---|
E|------------------|------------------|------------------|------------------|
                                                             Need - ed   you

    G                  G/B                G                  D
e|------------------|------------------|------------------|------------------|
B|------------------|------------------|------------------|------------------|
G|------------------|------------------|------------------|------------------|
D|--5---5---5---5---|--5---5---5---5---|--5---5---5---5---|--7---------------|
A|--3---3---3---3---|--2---2---2---2---|--3---3---3---3---|--5---------------|
E|------------------|------------------|------------------|------------------|
                                                             




    G                  F#7                Em                 Bm7
e|------------------|------------------|------------------|------------------|
B|--------3---------|--------1---------|--------8---------|--------7---------|
G|------------4-----|------------2-----|------------9-----|------------7-----|
D|------5--------5--|------1--------1--|------9--------9--|------7--------7--|
A|------------------|------------------|--7---------------|------------------|
E|--3---------------|--2---------------|------------------|--7---------------|
    Well,    a long    time   a - go                   That night   we had,

    C                  D7                 G                  D7         
e|------------------|------------------|------------------|------------------|
B|--------5---------|--------3---------|--------3---------|------------------|
G|------------5-----|------------5-----|------------4-----|------------------|
D|------5--------5--|------4--------4--|------5--------5--|--4---2---0-------|
A|--3---------------|--5---------------|------------------|--------------3---|
E|------------------|------------------|--3---------------|------------------|
    Was   my   only    claim     to fame

    G                  F#7                Em                 Bm7
e|------------------|------------------|------------------|------------------|
B|--------3---------|--------1---------|--------8---------|--------7---------|
G|------------4-----|------------2-----|------------9-----|------------7-----|
D|------5--------5--|------1--------1--|------9--------9--|------7--------7--|
A|------------------|------------------|--7---------------|------------------|
E|--3---------------|--2---------------|------------------|--7---------------|
    Yeah,    we were   only friends                     And girl you took a -

    C                  D7                 G                  G         
e|------------------|------------------|------------------|------------------|
B|--------5---------|--------3---------|--------3---------|------------------|
G|------------5-----|------------5-----|------------4-----|------------------|
D|------5--------5--|------4--------4--|------5--------5--|------------------|
A|--3---------------|--5---------------|------------------|-------------2----|
E|------------------|------------------|--3---------------|--3---------------|
  - way from us our    hap - py  end




    C                  D#7                Em                 Bm7
e|------------------|------------------|------------------|------------------|
B|------------5-----|------------7-----|------------8-----|------------7-----|
G|--------5------5--|--------5------5--|--------9------9--|--------7------7--|
D|------5-----------|------7-----------|------9-----------|------7-----------|
A|--3---------------|--6---------------|--7---------------|------------------|
E|------------------|------------------|------------------|--7---------------|
             I   will   stay     with yo--u        I  will  stay   with   you

    C                  D#7                Em                 F#m7(b5)
e|------------------|------------------|------------------|------------------|
B|------------5-----|------------7-----|------------8-----|-----------10-----|
G|--------5------5--|--------5------5--|--------9------9--|--------9------9--|
D|------5-----------|------7-----------|------9-----------|-----10-----------|
A|--3---------------|--6---------------|--7---------------|--9---------------|
E|------------------|------------------|------------------|------------------|
            I   will   stay    with  you

    C                  D#7                Em                 Bm7
e|------------------|------------------|------------------|------------------|
B|------------5-----|------------7-----|------------8-----|------------7-----|
G|--------5------5--|--------5------5--|--------9------9--|--------7------7--|
D|------5-----------|------7-----------|------9-----------|------7-----------|
A|--3---------------|--6---------------|--7---------------|------------------|
E|------------------|------------------|------------------|--7---------------|
              How  I   need  - ed   you            How  I    need  -   ed

    C                  D7                G                   G
e|------------------|------------------|------------------|------------------|
B|------------5-----|------------3-----|------------------|--5---------------|
G|--------5------5--|--------5------5--|------------------|--5---------------|
D|------5-----------|------4-----------|------------------|--5---------------|
A|--3---------------|--5---------------|------------------|------------------|
E|------------------|------------------|--3---------------|--3---------------|
     you     How  I    need  -  ed  you




    G                                     D
e|------------------|------------------|------------------|------------------|
B|------------------|------------------|------------------|------------------|
G|------------------|------------------|------------------|------------------|
D|--5---5---5---5---|--5---5---5---5---|--7---7---7---7---|--7---7---7---7---|
A|--3---3---3---3---|--3---3---3---3---|--5---5---5---5---|--5---5---5---5---|
E|------------------|------------------|------------------|------------------|
You’ve taken from  me   everything in the world              Need - ed   you

    G                                     D
e|------------------|------------------|------------------|------------------|
B|------------------|------------------|------------------|------------------|
G|------------------|------------------|------------------|------------------|
D|--5---5---5---5---|--5---5---5---5---|--7---7---7---7---|--7---7---7---7---|
A|--3---3---3---3---|--3---3---3---3---|--5---5---5---5---|--5---5---5---5---|
E|------------------|------------------|------------------|------------------|
You’ve taken from  me   everything in the world              Need - ed   you

    G                  G/B                G                  D
e|------------------|------------------|------------------|------------------|
B|------------------|------------------|------------------|------------------|
G|------------------|------------------|------------------|------------------|
D|--5---5---5---5---|--5---5---5---5---|--5---5---5---5---|--7---7---7---7---|
A|--3---3---3---3---|--2---2---2---2---|--3---3---3---3---|--5---5---5---5---|
E|------------------|------------------|------------------|------------------|
You’ve taken from  me   everything in the world              Need - ed   you

    G                  G/B                G                  D
e|------------------|------------------|------------------|------------------|
B|------------------|------------------|------------------|------------------|
G|------------------|------------------|------------------|------------------|
D|--5---5---5---5---|--5---5---5---5---|--5---5---5---5---|--7---7---7---7---|
A|--3---3---3---3---|--2---2---2---2---|--3---3---3---3---|--5---5---5---5---|
E|------------------|------------------|------------------|------------------|
You’ve taken from  me   everything in the world





    Em                                    Bm
e|--0---------------|------------------|------------------|------------------|
B|--0---------------|------------------|--7---------------|------------------|
G|--0---------------|------------------|--7---------------|------------------|
D|--2---------------|------------------|--9---------------|------------------|
A|--2---------------|------------------|------------------|------------------|
E|--0---------------|------------------|--7---------------|------------------|
    I   you   than hate everything in the world                      Well I
     hate  more   I                

    C                  C                  G                  Bm
e|------------------|------------------|------------------|------------------|
B|--8---------------|------------------|--3---------------|--7---------------|
G|--9---------------|------------------|--4---------------|--7---------------|
D|--10--------------|------------------|--5---------------|--9---------------|
A|------------------|------------------|------------------|------------------|
E|--8---------------|------------------|--3---------------|--7---------------|
   do-------------------------   I said I do

    Em                                    Bm
e|--0---------------|------------------|------------------|------------------|
B|--0---------------|------------------|--7---------------|------------------|
G|--0---------------|------------------|--7---------------|------------------|
D|--2---------------|------------------|--9---------------|------------------|
A|--2---------------|------------------|------------------|------------------|
E|--0---------------|------------------|--7---------------|------------------|
    You’ve taken from me everything I deserve                        Well it's 

    C                  C                  G                  Bm
e|------------------|------------------|------------------|------------------|
B|--8---------------|------------------|--3---------------|--7---------------|
G|--9---------------|------------------|--4---------------|--7---------------|
D|--10--------------|------------------|--5---------------|--9---------------|
A|------------------|------------------|------------------|------------------|
E|--8---------------|------------------|--3---------------|--7---------------|
   true----------------------  Yeah it's true

    Em                                    Bm
e|--0---------------|------------------|------------------|------------------|
B|--0---------------|------------------|--7---------------|------------------|
G|--0---------------|------------------|--7---------------|------------------|
D|--2---------------|------------------|--9---------------|------------------|
A|--2---------------|------------------|------------------|------------------|
E|--0---------------|------------------|--7---------------|------------------|
    I   you   than hate everything in the world                        Well I 
     hate  more   I                

    C                  C                  G                  Bm
e|------------------|------------------|------------------|------------------|
B|--8---------------|------------------|--3---------------|--7---------------|
G|--9---------------|------------------|--4---------------|--7---------------|
D|--10--------------|------------------|--5---------------|--9---------------|
A|------------------|------------------|------------------|------------------|
E|--8---------------|------------------|--3---------------|--7---------------|
   do-------------------------    Well I do

    Em                                    Bm
e|--0---------------|------------------|------------------|------------------|
B|--0---------------|------------------|--7---------------|------------------|
G|--0---------------|------------------|--7---------------|------------------|
D|--2---------------|------------------|--9---------------|------------------|
A|--2---------------|------------------|------------------|------------------|
E|--0---------------|------------------|--7---------------|------------------|
    I   you   than hate everything in the world                     Well it's
     hate  more   I                

    C                  C                  G                  Bm
e|------------------|------------------|------------------|------------------|
B|--8---------------|------------------|--3---------------|--7---------------|
G|--9---------------|------------------|--4---------------|--7---------------|
D|--10--------------|------------------|--5---------------|--9---------------|
A|------------------|------------------|------------------|------------------|
E|--8---------------|------------------|--3---------------|--7---------------|
   true----------------------  Well it's true



    G                                     D
e|------------------|------------------|------------------|------------------|
B|------------------|------------------|------------------|------------------|
G|------------------|------------------|------------------|------------------|
D|--5---5---5---5---|--5---5---5---5---|--7---7---7---7---|--7---7---7---7---|
A|--3---3---3---3---|--3---3---3---3---|--5---5---5---5---|--5---5---5---5---|
E|------------------|------------------|------------------|------------------|
You’ve taken from  me   everything in the world              Need - ed   you

    G                                     D
e|------------------|------------------|------------------|------------------|
B|------------------|------------------|------------------|------------------|
G|------------------|------------------|------------------|------------------|
D|--5---5---5---5---|--5---5---5---5---|--7---7---7---7---|--7---7---7---7---|
A|--3---3---3---3---|--3---3---3---3---|--5---5---5---5---|--5---5---5---5---|
E|------------------|------------------|------------------|------------------|
You’ve taken from  me   everything in the world              Need - ed   you

    G                  G/B                G                  D
e|------------------|------------------|------------------|------------------|
B|------------------|------------------|------------------|------------------|
G|------------------|------------------|------------------|------------------|
D|--5---5---5---5---|--5---5---5---5---|--5---5---5---5---|--7---7---7---7---|
A|--3---3---3---3---|--2---2---2---2---|--3---3---3---3---|--5---5---5---5---|
E|------------------|------------------|------------------|------------------|
You’ve taken from  me   everything in the world              Need - ed   you

    G                  G/B                G                  D
e|------------------|------------------|------------------|------------------|
B|------------------|------------------|------------------|------------------|
G|------------------|------------------|------------------|------------------|
D|--5---5---5---5---|--5---5---5---5---|--5---5---5---5---|--7---------------|
A|--3---3---3---3---|--2---2---2---2---|--3---3---3---3---|--5---------------|
E|------------------|------------------|------------------|------------------|
You’ve taken from  me   everything in the world





    G                  D#7                Em                 Bm7
e|------------------|------------------|------------------|------------------|
B|--------3---------|------------7-----|------------8-----|------------7-----|
G|------------5-----|--------5------5--|--------9------9--|--------7------7--|
D|------5--------4--|------7-----------|------9-----------|------7-----------|
A|------------------|--6---------------|--7---------------|------------------|
E|--3---------------|------------------|------------------|--7---------------|
             I   will   stay     with you          I  will  stay   with   you

    C                  D#7                Em                 D#7
e|------------------|------------------|------------------|------------------|
B|------------5-----|------------7-----|------------8-----|------------7-----|
G|--------5------5--|--------5------5--|--------9------9--|--------5------5--|
D|------5-----------|------7-----------|------9-----------|------7-----------|
A|--3---------------|--6---------------|--7---------------|--6---------------|
E|------------------|------------------|------------------|------------------|
            I   will   stay    with  you            How  I   need  - ed   you

    Em                 Bm7                C                  D7
e|------------------|------------------|------------------|------------------|
B|------------8-----|------------7-----|------------5-----|------------3-----|
G|--------9------9--|--------7------7--|--------5------5--|--------5------5--|
D|------9-----------|------7-----------|------5-----------|------4-----------|
A|--7---------------|------------------|--3---------------|--5---------------|
E|------------------|--7---------------|------------------|------------------|
              How  I   need  - ed   you            How  I    need  -   ed

    G
e|------------------|
B|----------3-------|
G|--------0---------|
D|------0-----------|
A|----2-------------|
E|--3---------------|
     you
Tap to rate this tab
# A B C D E F G H I J K L M N O P Q R S T U V W X Y Z