Song name
# A B C D E F G H I J K L M N O P Q R S T U V W X Y Z

Pungent Stench - Viva La Muerte tab

Pungent Stench - Viva La Muerte

from the album Dirty Rhymes & Psychotronic Beats (1993)

Tuning - (Standard D) - D G C F A D
Tab difficulty: Intermediate

If you find errors contact me

V.linnas@hotmail.com


Intro (Use alot of vibrato)

||----------------------------------------------------------------------||
||----------------------------------------------------------------------||
||----------------------------------------------------------------------||
||-----------------5-5-3-5-3--------------------------------------------||
||-5-5-3-5-----7~~-----------5-3-5~---5-5-3-5-----7~~------5-3-5-3------||
||---------5-3--------------------------------5-3----5-5-3---------5-3~-||

||----------------------------------------------------------------------||
||----------------------------------------------------------------------||
||----------------------------------------------------------------------||
||-----------------5-5-3-5-3--------------------------------------------||
||-5-5-3-5-----7~~-----------5-3-5~~---5-5-3-5-----7~~------------------||
||---------5-3----------------------------------5-3-----5-3-5-3-5-0~~---||

Melody

||------------------------------||
||------------------------------||
||------------------------------||
||-2---5--(2)--2-4-5-7-5-4-2-0--|| 4x
||-2---5--(2)-------------------||
||-0---3--(0)-------------------||

Pre-verse

||----------------------------------------------||
||----------------------------------------------||
||----------------------------------------------||
||----------------------------------------------||
||-2---5---7---8--7--5----2---5---7----8--7--5--||
||-0---3---5---6--5--3----0---3---5----6--5--3--||

||-----------------------------------------------------------------||
||-----------------------------------------------------------------||
||-----------------------------------------------------------------||
||-----------------------------------------------------------------||
||-2--5--2--8----8--7--5--2----2--5--2--8----8--7--5--2---8--7--5--||
||-0--3--0--6----6--5--3--0----0--3--0--6----6--5--3--0---6--5--3--||

||-------------------------||
||-------------------------||
||-------------------------||
||-------------------------|| 4x
||-------------------------||
||-0-5-0-3-5-3-5~~0-3-5-3--||

Vocals start
Verse

||---------------------------------------||
||---------------------------------------||
||---------------------------------------||
||---------------------------------------|| 4x
||---------------------------------------||
||-000000000000--0-5-0-3-5-3-5~~0-3-5-3--||
   ............

||------------------------------------------------------------||
||------------------------------------------------------------||
||------------------------------------------------------------||
||------------------------------------------------------------||
||---------------5--3-5-3------------------------5--3-5-3-----||
||-0-5-0-3-5-3-5----------5-3~~----0-5-0-3-5-3-5----------5~3-||

||------------------------------||
||------------------------------||
||------------------------------||
||------------------------------||
||---------3-5~~----------3-5~~-||
||-3333535--------3333535-------||

||------------------------------------------------------------||
||------------------------------------------------------------||
||------------------------------------------------------------||
||------------------------------------------------------------||
||---------------5--3-5-3------------------------5--3-5-3-----||
||-0-5-0-3-5-3-5----------5-3~~----0-5-0-3-5-3-5----------5~3-||

||------------------------------||
||------------------------------||
||------------------------------||
||------------------------------||
||---------3-5~~----------3-5~~-||
||-3333535--------3333535-------||

||---------------------------------------||
||---------------------------------------||
||---------------------------------------||
||---------------------------------------|| 3x
||---------------------------------------||
||-000000000000--0-5-0-3-5-3-5~~0-3-5-3--||
   ............

||------------------------------||
||------------------------------||
||------------------------------||
||------------------------------||
||------------------------------||
||-000000000000--0-5-0-3-5-3-5--||
   ............

Second time played the solo comes in

||-----------------------------------------------------------------||
||-----------------------------------------------------------------||
||-----------------------------------------------------------------||
||-----------------------------------------------------------------|| 2x (Solo)
||-2--5--2--8----8--7--5--2----2--5--2--8----8--7--5--2---8--7--5--||
||-0--3--0--6----6--5--3--0----0--3--0--6----6--5--3--0---6--5--3--||

Bridge

||----------------------------------------------------------||
||----------------------------------------------------------||
||----------------------------------------------------------||
||----------------------------------------------------------||
||---------------------2-5-2-8-7-5-2------------------------||
||-5-0-5-3-5-3-5-3-5-3-0-3-0-6-5-3-0------------------------||
                       ************* These between
Bass fill
*
Drum fill
*
Yea baby!
*
Yau!

||-------------------------||
||-------------------------||
||-------------------------||
||-------------------------|| 4x
||-------------------------||
||-0-5-0-3-5-3-5~~0-3-5-3--|| End with -555535-

Verse

||---------------------------------------||
||---------------------------------------||
||---------------------------------------||
||---------------------------------------|| 4x
||---------------------------------------||
||-000000000000--0-5-0-3-5-3-5~~0-3-5-3--||
   ............

||------------------------------------------------------------||
||------------------------------------------------------------||
||------------------------------------------------------------||
||------------------------------------------------------------||
||---------------5--3-5-3------------------------5--3-5-3-----||
||-0-5-0-3-5-3-5----------5-3~~----0-5-0-3-5-3-5----------5~3-||

||------------------------------||
||------------------------------||
||------------------------------||
||------------------------------||
||---------3-5~~----------3-5~~-||
||-3333535--------3333535-------||

||------------------------------------------------------------||
||------------------------------------------------------------||
||------------------------------------------------------------||
||------------------------------------------------------------||
||---------------5--3-5-3------------------------5--3-5-3-----||
||-0-5-0-3-5-3-5----------5-3~~----0-5-0-3-5-3-5----------5~3-||

||------------------------------||
||------------------------------||
||------------------------------||
||------------------------------||
||---------3-5~~----------3-5~~-||
||-3333535--------3333535-------||

||---------------------------------------||
||---------------------------------------||
||---------------------------------------||
||---------------------------------------|| 4x
||---------------------------------------||
||-000000000000--0-5-0-3-5-3-5~~0-3-5-3--||
   ............

Melody

||------------------------------||
||------------------------------||
||------------------------------||
||-2---5--(2)--2-4-5-7-5-4-2-0--|| 4x
||-2---5--(2)-------------------||
||-0---3--(0)-------------------||

Final solo

||---------------------||
||---------------------||
||---------------------||
||-2---5---7-(7)(7)----||
||-2---5---7-(7)(7)----||
||-0-0-3-0-5-(5)(5)-0--||
     .   .          .

Song flow:

Intro
Melody
Pre-verse
Verse
Solo
Bridge
Verse
Melody
Final solo


Rate & Comment!
Tap to rate this tab
# A B C D E F G H I J K L M N O P Q R S T U V W X Y Z