Song name
# A B C D E F G H I J K L M N O P Q R S T U V W X Y Z

Pungent Stench - Invisible Empire tab

Help us improve GuitareTab! Take a short survey!
PUNGENT STENCH-Invisible Empire
Ampeauty-2004

 " - tremolo
 / - slide down
 \ - slide up
 . - palm mute
 ~ - long sound
 x - rest
 p - pull off
 h - hammer on
 tr - trill
 () - ghost note, sustained note
 * - artificial harmonics
 b - bend

 Tuning from low to high: C F A# D# G C
=======================================

 Intro
|----------------------------------|
|----------------------------------|
|----------------------------------|
|-2x-5-----3-----------------------|
|-2x---3-2---2-1-0~------------4---|
|-0x-----------------0-5-6-5-3---3-|


 Riff 1
|------------------------------------------------------------------|
|------------------------------------------------------------------|
|------------------------------------------------------------------|
|-----4---3---------4-----3------------4---3-------------3---5-5---|
|-----2---1---------2-----1-----1------2---1---------3---1---3-3---|
|-0-0---0---3-1-0-0---0-0---3-1----0-0---0---3-1-0-0-1-0---0-------|
  . .   .       . .   . .          . .   .       . .   .   .
|------------------------------------------------------------------------|
|------------------------------------------------------------------------|
|------------------------------------------------------------------------|
|-----4---3---------4-----3------------4---3-----------------------------|
|-----2---1---------2-----1-----1------2---1------------3----------------|
|-0-0---0---3-1-0-0---0-0---3-1----0-0---0---3-1-0-0-00-1--0-00-3~h6p3p1-|
  . .   .       . .   . .          . .   .       . . ..    . . ..


 Riff 3
|--------------------------------------|
|--------------------------------------|
|--------------------------------------|
|---5-----3-----------------------2~---|
|-----3-2---2-1-0~------------4---2~---|
|-0-----------------0-5-6-5-3---3-0~---|


 Fill 1
|-----------------------|
|-----------------------|
|-----------------------|
|-----------------------|
|-2-2-2-2-2-2-2-2-2-2-2-|
|-0-0-0-0-0-0-0-0-0-0-0-|
  . . . . . . . . . . .

 Fill 2
|-----------------|
|-----------------|
|-----------------|
|---5-----3-------|
|-----3-2---2-1~--|
|-0---------------|



 Riff 4
|---------------------------------------------------------------|
|---------------------------------------------------------------|
|-------7~----------------------------7~------------------------|
|-2~----7~----------------------2~----7~-----7~-----------------|
|-2~----5~--------0-7---7-------2~----5~--/7-7~-----------------|
|-0~------------------7---6~----0~-----------5~-----5h6p5-3~----|

|-----------------------------------------------------------|
|-----------------------------------------------------------|
|-------7~--------------------------------------------------|
|-2~----7~----------------------------------------------6~--|
|-2~----5~--------0-7---7-------5~----7-8-7-8~--7-8-7-8-4~--|
|-0~------------------7---6~----3~----5-6-5-6~--5-6-5-6-----|



 Fill 3
|----------------------------|
|----------------------------|
|----------------------------|
|---5-----3--------------6-7-|z
|-----3-2---2-1-0--2-3-5-4-5-|
|-0----------------0-1-3-----|
 [   bass line   ]


 Riff 5
|-------------------------------------------------------|
|---------------------a.h.------------------------------|
|--------a.h.--------666666-----------------------------|
|-------777777------------------------------------------|
|-8-7-8--------8-7-8--------7-6-7----7-6-7-6-7-8-3-5~---|
|-6-5-6--------6-5-6--------5-4-5----5-4-5-4-5-6-1-3~---|

|-----------------------------------------------------|
|---------------------a.h.----------------------------|
|--------a.h.--------666666---------------------------|
|-------777777----------------------------------------|
|-8-7-8--------8-7-8--------7-6-7----7-6-7-2-3-5--6~--|
|-6-5-6--------6-5-6--------5-4-5----5-4-5-0-1-3--4~--|


 Solo Riff
|---------------------------------------------------|
|---------------------------------------------------|
|---------------------------------------------------|
|-2----------7~--777-6~---2----------7~--7-6-7-9~---|
|-2--7-0-7---7~--777-7~---2--7-0-7---7~--------7~---|
|-0--------7--------------0--------7-5~-------------|

|----------------------------------------|
|----------------------------------------|
|----------------------------------------|
|-2----------7~--777-7~-------------2~---|
|-2--7-0-7---5~--555-5~---5~---7~---2~---|
|-0--------7--------------3~---5~---0~---|

 Post-Solo Riff
|----------------|     |--------------------|
|----------------|     |--------------------|
|----------------|     |--------------------|
|-----------2~---|x2   |-5h7p5---------2~---|
|-5~---7~---2~---|     |-------5-5~--7-2~---|
|-3~---5~---0~---|     |---------3~--5-0~---|

Related for Invisible Empire tab