Punkreas - Anarchia tab

Artist : Punkreas 
Song : "Anarchia"

Riff 1  
e|-------------------------------|
B|-------------------------------|
G|-------------------------------|
D|---7/9/10/9/5-5-5-5------------|
A|---7/9/10/9/5-5-5-5------------|
E|---5/7/8-/7/3-3-3-3------------|

Spazza il quirinale
Spazza il quirinale
Non c’Ŕ pi¨ morale
spazza il quirinale

Brucia presidente
Brucia presidente
Brutto deficiente
Brucia presidente

Vai contro lo stato
Vai contro lo stato
Comprimi il canditato
Vai contro lo stato

Non votare niente
Non votare niente
Buttaci una bomba
Non votare niente

Pre-Rit   0:38
e|-----------------------------------------------------|
B|-----------------------------------------------------|
G|-----------------------------------------------------|
D|-9--9-9-9-9---7--7-7-7-7---5--5-5-5-5---4--4-4-4-4---|
A|-9--9-9-9-9---7--7-7-7-7---5--5-5-5-5---4--4-4-4-4---|
E|-7--7-7-7-7---5--5-5-5-5---3--3-3-3-3---2--2-2-2-2---| 

Rit 0:43
e|---------------------------------------------------------------------|
B|---------------------------------------------------------------------|
G|---------------------------------------------------------------------|
D|-9-9-9-9-9-9-9-9--7-7-7-7-7-7-7-7--5-5-5-5-5-5-5-5--4-4-4-4-4-4-4-4--|
A|-9-9-9-9-9-9-9-9--7-7-7-7-7-7-7-7--5-5-5-5-5-5-5-5--4-4-4-4-4-4-4-4--|
E|-7-7-7-7-7-7-7-7--5-5-5-5-5-5-5-5--3-3-3-3-3-3-3-3--2-2-2-2-2-2-2-2--|

Siamo giÓ in galera
siamo giÓ in galera
per un paio d’anni
Siamo giÓ in galera

siamo giÓ in galera
siamo giÓ in galera
per un paio d’anni
siamo giÓ in galera

 Solo 0:54
e|------------------------------------------------------------------|
B|------------------------------------------------------------------|
G|-9b(11)r(9)-7h9p7h9~-9b(11)r(9)-7h9p7h9~-9b(11)r(9)-7h9p7h9~------|
D|------------------------------------------------------------7-9---|
A|------------------------------------------------------------------|
E|------------------------------------------------------------------|

e|------------------------------------------------------------------|
B|------------------------------------------------------------------|
G|-7-9~-7-9-11-9-7/6-7-9-11-9--7/6-7-9-11-9-7/6h7p6-----------------|
D|--------------------------------------------------7-7-7-7~--------|
A|------------------------------------------------------------------|
E|------------------------------------------------------------------|

Rit
e|---------------------------------------------------------------------|
B|---------------------------------------------------------------------|
G|---------------------------------------------------------------------|
D|-9-9-9-9-9-9-9-9--7-7-7-7-7-7-7-7--5-5-5-5-5-5-5-5--4-4-4-4-4-4-4-4--|
A|-9-9-9-9-9-9-9-9--7-7-7-7-7-7-7-7--5-5-5-5-5-5-5-5--4-4-4-4-4-4-4-4--|
E|-7-7-7-7-7-7-7-7--5-5-5-5-5-5-5-5--3-3-3-3-3-3-3-3--2-2-2-2-2-2-2-2--|

Siamo giÓ in galera
siamo giÓ in galera
per un paio d’anni
Siamo giÓ in galera

siamo giÓ in galera
siamo giÓ in galera
per un paio d’anni
siamo giÓ in galera

End on 1:18
e|---|
B|---|
G|---|
D|-9-|
A|-9-|
E|-7-|
Tap to rate this tab
 
# A B C D E F G H I J K L M N O P Q R S T U V W X Y Z