Song name
# A B C D E F G H I J K L M N O P Q R S T U V W X Y Z

Queens Of The Stone Age - Mexicola tab

X=====================================NOTE=====================================
X This tab belongs to its author and represents his interpretation of the song
X You may only use this tab for private study, scholarship, or research
X Do not change, deface, mutilate, or in any other way alter this tab
X You must email the author first if you want to use this tab on your site
X==============================================================================

Mexicola 
Tabbed by foalster [foalster@hotmail.com]

Tuning - C F Bb Eb G C


p - pull-off
/ - slide up
~ - vibrato

---------------------------------------------------------------------------|
----------------------------------14~-------------------------------14~----|
--------------------------------15--------------------------------15-------|
---14p12-14p12-14p12-14p12-14p12-----14p12-14p12-14p12-14p12-14p12---------|
---------------------------------------------------------------------------|
---------------------------------------------------------------------------|


--------------------------------------------------------------|
---14/15-1515---1514------------------------------------------|
--------------------1512---12---1215-------15----12---15------|
------------------------------------14---14--14---------------|
--------------------------------------------------------------|
--------------------------------------------------------------|


--------15----15--18~--18----18--1518-------------------------|
---14/17----17--17-------------17----141417-1417^-------------|
-------------------------------------------------15-----------|
--------------------------------------------------------------|
--------------------------------------------------------------|
--------------------------------------------------------------|



--------------------------------------------------------------|
---------------------------------------14~--14---14---14^-----|
---1215--------15--12--15---------12p14-----------------------|
--------14---14--14----------12p14----------------------------|
--------------------------------------------------------------|
--------------------------------------------------------------|

Tap to rate this tab
 
# A B C D E F G H I J K L M N O P Q R S T U V W X Y Z