Song name
# A B C D E F G H I J K L M N O P Q R S T U V W X Y Z

Queens Of The Stone Age - In The Fade tab

Help us improve GuitareTab! Take a short survey!
Queens of the Stone Age - In the Fade
From the album "Rated R"

Ok, so the first part of the song
is actually played by a piano but
you can play the guitar as well,
in the verse you need some kind of effects
but I've got the tabs for what's played. 
Listen to the song and you'll get it!

Any questions, just send me a mail:
jakob.fred@hotmail.com!

Intro (Piano)

E-----------------|---------------|---------------|--------------|
B---------9~------|----------9~---|----------10~--|--------11~---|
G---------9~------|----------6~---|-----------9~--|--------11~---|
D-----------------|---------------|---------------|--------------|
A-----------------|---------------|---------------|--------------|
E-----------------|---------------|---------------|--------------|



When Lanegan starts somthing like "They don't know",
the guitar plays with some kind of effect, 
try to find the right sound of it. You might need some reverb.

Verse

E---------------|---------------|---------------|--------------|
B---------9-----|---------12----|--------10-----|-----14-------|
G---------9-----|---------9-----|--------9------|-----11-------|
D---------------|---------------|---------------|--------------|
A---------------|---------------|---------------|--------------|
E---------------|---------------|---------------|--------------| x alot of times


Chorus (distortion)


E-----5--------|------7--------|------9-----|
B-----5--------|------7--------|------9-----|
G-----4--------|------9--------|------9-----|
D-----7--------|------9--------|------11----|
A-----7--------|------7--------|------11----|
E-----5--------|---------------|------9-----|


Bridge

E------------------------------------|-----7---------9-----|
B------------------------------------|-----7---------9-----|
G---------9---13----9----------------|-----9---------9-----|
D----9h11---------------11p9h11-9h11-|-----9---------11----|
A------------------------------------|-----7---------11----|
E------------------------------------|---------------9-----| x3

E------------------------------------|-----7---------9-----|
B----------------------12------------|-----7---------9-----|
G---------9---13----9-----13b--------|-----9---------9-----|
D----9h11----------------------------|-----9---------11----|
A------------------------------------|-----7---------11----|
E------------------------------------|---------------9-----| x1

outro

E----------------5----------------|--------------------|
B----------------5----------------|--------------------|
G----------------4----------------|--------------------|
A----------------7----------------|--------------------| x alot of times
D----------------7----------------|--------------------|
E----------------5----------------|--------------------|




Related for In The Fade tab