Song name
# A B C D E F G H I J K L M N O P Q R S T U V W X Y Z

Queens Of The Stone Age - I Appear Missing tab

-----------------------------------------------------------------
I Appear Missing - Queens of the Stone Age
-----------------------------------------------------------------
Tabbed by:funkymonk66
Email:sam@mwosb.co.uk

Tuning:Standard

This is a tab for the 3 minute demo of the song that was released on May 6th. I may do a 
full tab when the album is released in full.
I did this by ear so it may not be completely accurate. Listen to the song for timings. Enjoy!!


Intro/Verse 0:00-0:33
e||--9-------9-----9-7-------7---------------11-----11---------12-----12-|
B||*-----9-------9-------9-------9-----8---8----8--------9---9----9------|
G||----9---9---9-------9---9---9---9-8---8--------8----9---9--------9----|
D||----------------------------------------------------------------------|
A||*---------------------------------------------------------------------|
E||----------------------------------------------------------------------|

e|-9-------9-----9-7-------7---------------11-----11----------------||
B|-----9-------9-------9-------9-----8---8----8------12--12--10--9-*||
G|---9---9---9-------9---9---9---9-8---8--------8-------------------||
D|------------------------------------------------------------------||
A|-----------------------------------------------------------------*||
E|------------------------------------------------------------------||



Chorus 0:34-0:59
e|---------------------------------------|
B|---------------------------------------|
G|--------------------------------13-----|
D|-----11-------11-------11-------11-----|
A|-0-0----0-0-0----0-0-0----0-0-0----0-0-|
E|---------------------------------------|

e||------------------------------------------------------------------------------------||
B||*----------------------------------------------------------------------------------*||
G||----------13------13-11-------11---9/13---------------------------------------------||
D||-----11------11-----------7-----------------------11------11-------------13-14--11--||
A||*--0----0-------0-------0---0----0--------11---11----11---------13----13-----------*||
E||----------------------------------------9----9----------9----11----11---------------||

e|---------------------------------------|
B|---------------------------------------|
G|---------------------------------------|
D|-----11-------11-------11-------11-----|
A|-0-0----0-0-0----0-0-0----0-0-0----0-0-|
E|---------------------------------------|

0:59-1:48 Intro/Verse riff

1:48-1:52
e|---------------------------------------|
B|---------------------------------------|
G|---------------------------------------|
D|-----11-------11-------11-------11-----|
A|-0-0----0-0-0----0-0-0----0-0-0----0-0-|
E|---------------------------------------|

Bridge 1:52-2:09
e||--------------------------------------------------||
B||*------------------------------------------------*||
G||--------------------------------------------------||
D||-----11------11------11---11-11-11h13---11---9----||
A||*-0-------9-------7------------------------------*||
E||--------------------------9--9--9-----9----7------||


Outro 2:09-3:00
e||------------------------------------------------------------------------------------||
B||*----------------------------------------------------------------------------------*||
G||----------13------13-11-------11---9/13---------------------------------------------||
D||-----11------11-----------7-----------------------11------11-------------13-14--11--||
A||*--0----0-------0-------0---0----0--------11---11----11---------13----13-----------*||
E||----------------------------------------9----9----------9----11----11---------------||

e|-----------------------------------------------------------|
B|-----------------------------------------------------------|
G|-----------------------------------------------------------|
D|-----11-------11-------------11------11-------------13-14--|
A|-0-0----0-0-0----0---11---11----11---------13----13--------|
E|-------------------9----9----------9----11----11-----------|


e|---------------------------------------|
B|---------------------------------------|
G|---------------------------------------|
D|-----11-------11-------11-------11-----|
A|-0-0----0-0-0----0-0-0----0-0-0----0-0-|
E|---------------------------------------|


e||--------------------------------------||
B||*------------------------------------*||
G||--------------------------------------||  x8
D||-------11-------11------11-------11---||
A||*---11-------11------11-------11-----*||
E||--9-------10-------9-------10---------||

e|----|
B|----|
G|----|
D|-11-|
A|-11-|
E|-9--|

| /  slide up
| \  slide down
| h  hammer-on
| p  pull-off
| ~  vibrato
| +  harmonic
| x  Mute note
Tap to rate this tab
# A B C D E F G H I J K L M N O P Q R S T U V W X Y Z