Song name
# A B C D E F G H I J K L M N O P Q R S T U V W X Y Z

Queens Of The Stone Age - If I Had A Tail tab

Verse Riff

E|---------------------------------------------------------------------|
B|---------------------------------------------------------------------|
G|---------------------------------------------------------------------|
D|------------2---2-----------2---2-----------2---2-------------2---2--|
A|--4---4---4---4---2---2---2---2---2---2---2---2----------------------|
E|----------------------------------------------------0-0-0-0-0---0----|


Chorus Riff

E|-------------------------------------------------------|
B|-------------------------------------------------------|
G|-------------------------------------------------------|
D|-------------------------------------------------------|
A|-------------------------------------------------------|
E|--0--2--4--7-------9--6----------7--0------------0-----| (Repeat)

Chorus Riff 2

E|------------------------------------------------------|
B|------------------------------------------------------|
G|------------------------------------------------------|
D|------------------------------------------------------|
A|------------------------------------------------------|
E|--0--2--4--9-------11--7----------9--6--------7--0----| (Repeat)
Tap to rate this tab
 
# A B C D E F G H I J K L M N O P Q R S T U V W X Y Z