Song name
# A B C D E F G H I J K L M N O P Q R S T U V W X Y Z

Queens Of The Stone Age - If I Had A Tail tab

-------------------------------------------------------------------------------
                             IF I HAD A TAIL - Queens of the Stone Age
-------------------------------------------------------------------------------
Tabbed by: RomStapleton (Romain Q.)
E-mail: -

Tuning: E Standard (EADGBe)


Intro (Troy) :



e|-------------------------------------------11------------------------------|
B|------------14-----------14-----------14--------14---------14--------------|
G|---------------------------------------------------------------------------|
D|-------11-------11---11------11---11-----------------11--------------------|
A|---------------------------------------------------------------------------|
E|---------------------------------------------------------------------------|


Then enters Josh :

e|---------------------------------------------------------------------------|
B|---------------------------------------------------------------------------|
G|-----4---4------4---4------4---4-------------------------------------------|
D|-----6---6------6---6------6---6-------2-4-2-(4)/6-------------------------|
A|----------------------------------------------------4----------------------|
E|---------------------------------------------------------------------------|



Verse : Troy stops playing, Josh continues with the intro riff


Chorus (x2):


e|---------------------------------------------------------------------------|
B|---------------------------------------------------------------------------|
G|---------------------------------------------------------------------------|
D|-------------------------------------------2~------------------------------|
A|------------2~---2/4--1~--1/2--------------2~------------------------------|
E|---0--2--4-------------------0~------------0~------------------------------|

  If I had a tail, I'd own  the night
  If I had a tail, I'd swat the flies

Post-chorus x2 (don't know how to name this part) :


e|---------------------------------------------------------------------------|
B|---------------------------------------------------------------------------|
G|---------------------------------------------------------------------------|
D|--------------------------------------------2~-----------------------------|
A|-----------4~--4/6--2~--2/4--1~--1/2--------2~-----------------------------|
E|--0--2--4-----------------------------0~----0~-----------------------------|


Solo (I'll try to tab it later)

Outro (around 3:55) :

e|---------------------------------------------------------------------------|
B|---------------------------------------------------------------------------|
G|---------------------------------------------------------------------------|
D|---4---4---4---4---4---4---4---4---4---------------------------------------|
A|---4---4---4---4---4---4---4---4---4---------------------------------------|
E|---2---2---2---2p0h2---2---2---2p0h2---------------------------------------| 


e|----------------------------------|
B|----------------------------------|
G|-----6--4-------------------------|
D|-----------7--6---4--2/6~---------|
A|----------------------------------|
E|----------------------------------|

Feel free to comment/rate/make observations, and long live QotSA! ;)


************************************

| /   slide up
| \   slide down
| h   hammer-on
| p   pull-off
| ~   vibrato
| +   harmonic
| x   Mute note
| b   Bend
| pb  Pre-bend
| br  Bend release
| pbr Pre-bend release
| brb Bend release bend

************************************
Tap to rate this tab
# A B C D E F G H I J K L M N O P Q R S T U V W X Y Z