Guitaretab - guitar tabs
Song name
# A B C D E F G H I J K L M N O P Q R S T U V W X Y Z

Queens Of The Stone Age - Feel Good Hit Of The Summer tab

Tuning: C F Bb Eb G C

verse: 12x 12th time ending
---------------------|-----------|
---------------------|---10------|
---7-7-7-7-7-7-7-7---|---12b-----|
---7-7-7-7-7-7-7-7---|-----------|
---5-5-5-5-5-5-5-5---|-----------|
---------------------|-----------|
pm-------------------------------|

verse:
Nicotine valium vicadin marijuana ecstacy and alcohol

chorus 1x
------------------------|
-----------------10-----|
---7-7-7-7-7-7-7-12-----|
---7-7-7-7-7-7-7--------|
---5-5-5-5-5-5-5--------|
------------------------|
pm----------------------|

chorus:
Co-co-co-co-co-co-cocaine
[ Tab from: http://www.guitaretab.com/q/queens-of-the-stone-age/43011.html ]
3x 3rd time ending
---------------------|--------|
---------------------|---10---|
---7-7-7-7-7-7-7-7---|---12---|
---7-7-7-7-7-7-7-7---|--------|
---5-5-5-5-5-5-5-5---|--------|
---------------------|--------|


-----------------------------------------------------------|
-----------------------------------------------------10----|
---7-7-7-7-7-7-7-7---7-7-7-7-7-7-7-7-7-7-7-7-7-7-7-7-12b---|
---7-7-7-7-7-7-7-7---7-7-7-7-7-7-7-7-7-7-7-7-7-7-7-7-------|
---5-5-5-5-5-5-5-5-6p5-5-5-5-5-5-5-5-5-5-5-5-5-5-5-5-------|
-----------------------------------------------------------|


3x 3rd time ending
---------------------|---------|
---------------------|---10----|
---7-7-7-7-7-7-7-7---|---12b---|
---7-7-7-7-7-7-7-7---|---------|
---5-5-5-5-5-5-5-5---|---------|
---------------------|---------|


repeat verse and chorus


outro lead
------------------------|
---15------13------15---|
------------------------|
------------------------|
------------------------|
------------------------|
Related for Feel Good Hit Of The Summer tab
Advertisement will be closed in 10 seconds